  0
SECTION
  2
HEADER
  9
$ACADVER
  1
AC1015
  9
$ACADMAINTVER
 70
    20
  9
$DWGCODEPAGE
  3
ANSI_932
  9
$INSBASE
 10
0.0
 20
0.0
 30
0.0
  9
$EXTMIN
 10
1000.0
 20
2499.999999999975
 30
0.0
  9
$EXTMAX
 10
27000.00000000001
 20
40000.0
 30
0.0
  9
$LIMMIN
 10
0.0
 20
0.0
  9
$LIMMAX
 10
29700.0
 20
42000.0
  9
$ORTHOMODE
 70
     1
  9
$REGENMODE
 70
     1
  9
$FILLMODE
 70
     1
  9
$QTEXTMODE
 70
     0
  9
$MIRRTEXT
 70
     0
  9
$LTSCALE
 40
400.0
  9
$ATTMODE
 70
     1
  9
$TEXTSIZE
 40
300.0
  9
$TRACEWID
 40
0.5
  9
$TEXTSTYLE
  7
STANDARD
  9
$CLAYER
  8
0
  9
$CELTYPE
  6
BYLAYER
  9
$CECOLOR
 62
   256
  9
$CELTSCALE
 40
1.0
  9
$DISPSILH
 70
     0
  9
$DIMSCALE
 40
1.0
  9
$DIMASZ
 40
250.0
  9
$DIMEXO
 40
0.0
  9
$DIMDLI
 40
700.0
  9
$DIMRND
 40
0.0
  9
$DIMDLE
 40
0.0
  9
$DIMEXE
 40
300.0
  9
$DIMTP
 40
0.0
  9
$DIMTM
 40
0.0
  9
$DIMTXT
 40
300.0
  9
$DIMCEN
 40
0.0
  9
$DIMTSZ
 40
0.0
  9
$DIMTOL
 70
     0
  9
$DIMLIM
 70
     0
  9
$DIMTIH
 70
     0
  9
$DIMTOH
 70
     0
  9
$DIMSE1
 70
     0
  9
$DIMSE2
 70
     0
  9
$DIMTAD
 70
     1
  9
$DIMZIN
 70
     8
  9
$DIMBLK
  1

  9
$DIMASO
 70
     1
  9
$DIMSHO
 70
     1
  9
$DIMPOST
  1

  9
$DIMAPOST
  1

  9
$DIMALT
 70
     0
  9
$DIMALTD
 70
     2
  9
$DIMALTF
 40
25.4
  9
$DIMLFAC
 40
0.1
  9
$DIMTOFL
 70
     1
  9
$DIMTVP
 40
0.8333333333333333
  9
$DIMTIX
 70
     1
  9
$DIMSOXD
 70
     0
  9
$DIMSAH
 70
     1
  9
$DIMBLK1
  1
OPEN30
  9
$DIMBLK2
  1
OPEN30
  9
$DIMSTYLE
  2
SCALE100
  9
$DIMCLRD
 70
   256
  9
$DIMCLRE
 70
   256
  9
$DIMCLRT
 70
     4
  9
$DIMTFAC
 40
1.0
  9
$DIMGAP
 40
100.0
  9
$DIMJUST
 70
     0
  9
$DIMSD1
 70
     0
  9
$DIMSD2
 70
     0
  9
$DIMTOLJ
 70
     1
  9
$DIMTZIN
 70
     8
  9
$DIMALTZ
 70
     8
  9
$DIMALTTZ
 70
     8
  9
$DIMUPT
 70
     0
  9
$DIMDEC
 70
     3
  9
$DIMTDEC
 70
     3
  9
$DIMALTU
 70
     2
  9
$DIMALTTD
 70
     2
  9
$DIMTXSTY
  7
STANDARD
  9
$DIMAUNIT
 70
     0
  9
$DIMADEC
 70
     1
  9
$DIMALTRND
 40
0.0
  9
$DIMAZIN
 70
     2
  9
$DIMDSEP
 70
    46
  9
$DIMATFIT
 70
     3
  9
$DIMFRAC
 70
     0
  9
$DIMLDRBLK
  1
OPEN30
  9
$DIMLUNIT
 70
     2
  9
$DIMLWD
 70
    -2
  9
$DIMLWE
 70
    -2
  9
$DIMTMOVE
 70
     2
  9
$LUNITS
 70
     2
  9
$LUPREC
 70
     4
  9
$SKETCHINC
 40
0.1
  9
$FILLETRAD
 40
0.0
  9
$AUNITS
 70
     0
  9
$AUPREC
 70
     2
  9
$MENU
  1
A:\JVCM1
  9
$ELEVATION
 40
0.0
  9
$PELEVATION
 40
0.0
  9
$THICKNESS
 40
0.0
  9
$LIMCHECK
 70
     0
  9
$CHAMFERA
 40
0.0
  9
$CHAMFERB
 40
0.0
  9
$CHAMFERC
 40
0.0
  9
$CHAMFERD
 40
0.0
  9
$SKPOLY
 70
     0
  9
$TDCREATE
 40
2451800.480034722
  9
$TDUCREATE
 40
2451800.105038542
  9
$TDUPDATE
 40
2458361.362685185
  9
$TDUUPDATE
 40
2458360.987685185
  9
$TDINDWG
 40
0.1265827546
  9
$TDUSRTIMER
 40
0.0000000000
  9
$USRTIMER
 70
     0
  9
$ANGBASE
 50
0.0
  9
$ANGDIR
 70
     0
  9
$PDMODE
 70
     0
  9
$PDSIZE
 40
0.0
  9
$PLINEWID
 40
0.0
  9
$SPLFRAME
 70
     0
  9
$SPLINETYPE
 70
     6
  9
$SPLINESEGS
 70
     8
  9
$HANDSEED
  5
18607
  9
$SURFTAB1
 70
     6
  9
$SURFTAB2
 70
     6
  9
$SURFTYPE
 70
     6
  9
$SURFU
 70
     6
  9
$SURFV
 70
     6
  9
$UCSBASE
  2

  9
$UCSNAME
  2

  9
$UCSORG
 10
0.0
 20
0.0
 30
0.0
  9
$UCSXDIR
 10
1.0
 20
0.0
 30
0.0
  9
$UCSYDIR
 10
0.0
 20
1.0
 30
0.0
  9
$UCSORTHOREF
  2

  9
$UCSORTHOVIEW
 70
     0
  9
$UCSORGTOP
 10
0.0
 20
0.0
 30
0.0
  9
$UCSORGBOTTOM
 10
0.0
 20
0.0
 30
0.0
  9
$UCSORGLEFT
 10
0.0
 20
0.0
 30
0.0
  9
$UCSORGRIGHT
 10
0.0
 20
0.0
 30
0.0
  9
$UCSORGFRONT
 10
0.0
 20
0.0
 30
0.0
  9
$UCSORGBACK
 10
0.0
 20
0.0
 30
0.0
  9
$PUCSBASE
  2

  9
$PUCSNAME
  2

  9
$PUCSORG
 10
0.0
 20
0.0
 30
0.0
  9
$PUCSXDIR
 10
1.0
 20
0.0
 30
0.0
  9
$PUCSYDIR
 10
0.0
 20
1.0
 30
0.0
  9
$PUCSORTHOREF
  2

  9
$PUCSORTHOVIEW
 70
     0
  9
$PUCSORGTOP
 10
0.0
 20
0.0
 30
0.0
  9
$PUCSORGBOTTOM
 10
0.0
 20
0.0
 30
0.0
  9
$PUCSORGLEFT
 10
0.0
 20
0.0
 30
0.0
  9
$PUCSORGRIGHT
 10
0.0
 20
0.0
 30
0.0
  9
$PUCSORGFRONT
 10
0.0
 20
0.0
 30
0.0
  9
$PUCSORGBACK
 10
0.0
 20
0.0
 30
0.0
  9
$USERI1
 70
     0
  9
$USERI2
 70
     0
  9
$USERI3
 70
     0
  9
$USERI4
 70
     0
  9
$USERI5
 70
     0
  9
$USERR1
 40
0.0
  9
$USERR2
 40
0.0
  9
$USERR3
 40
0.0
  9
$USERR4
 40
0.0
  9
$USERR5
 40
0.0
  9
$WORLDVIEW
 70
     1
  9
$SHADEDGE
 70
     3
  9
$SHADEDIF
 70
    70
  9
$TILEMODE
 70
     1
  9
$MAXACTVP
 70
    16
  9
$PINSBASE
 10
0.0
 20
0.0
 30
0.0
  9
$PLIMCHECK
 70
     0
  9
$PEXTMIN
 10
0.9598916571909988
 20
0.8043799099959727
 30
0.0
  9
$PEXTMAX
 10
8.639024914718985
 20
7.239419189963752
 30
0.0
  9
$PLIMMIN
 10
-0.7005418191744587
 20
-0.2281003861915408
  9
$PLIMMAX
 10
10.29945794052965
 20
8.271899373512567
  9
$UNITMODE
 70
     0
  9
$VISRETAIN
 70
     0
  9
$PLINEGEN
 70
     0
  9
$PSLTSCALE
 70
     0
  9
$TREEDEPTH
 70
  3020
  9
$CMLSTYLE
  2
STANDARD
  9
$CMLJUST
 70
     0
  9
$CMLSCALE
 40
1.0
  9
$PROXYGRAPHICS
 70
     1
  9
$MEASUREMENT
 70
     0
  9
$CELWEIGHT
370
    -1
  9
$ENDCAPS
280
     0
  9
$JOINSTYLE
280
     0
  9
$LWDISPLAY
290
     0
  9
$INSUNITS
 70
     0
  9
$HYPERLINKBASE
  1

  9
$STYLESHEET
  1
JVC.ctb
  9
$XEDIT
290
     1
  9
$CEPSNTYPE
380
     0
  9
$PSTYLEMODE
290
     1
  9
$FINGERPRINTGUID
  2
{A1EAC6EE-7387-4967-AF5A-7853A98CC7E6}
  9
$VERSIONGUID
  2
{0959C92E-2979-1743-9275-B2898C82BDAC}
  9
$EXTNAMES
290
     1
  9
$PSVPSCALE
 40
0.0
  9
$OLESTARTUP
290
     0
  0
ENDSEC
  0
SECTION
  2
CLASSES
  0
CLASS
  1
DICTIONARYVAR
  2
AcDbDictionaryVar
  3
ObjectDBX Classes
 90
        0
280
     0
281
     0
  0
CLASS
  1
ACDBDICTIONARYWDFLT
  2
AcDbDictionaryWithDefault
  3
ObjectDBX Classes
 90
        0
280
     0
281
     0
  0
CLASS
  1
ACDBPLACEHOLDER
  2
AcDbPlaceHolder
  3
ObjectDBX Classes
 90
        0
280
     0
281
     0
  0
CLASS
  1
LAYOUT
  2
AcDbLayout
  3
ObjectDBX Classes
 90
        0
280
     0
281
     0
  0
CLASS
  1
TABLESTYLE
  2
AcDbTableStyle
  3
ObjectDBX Classes
 90
     4095
280
     0
281
     0
  0
CLASS
  1
SORTENTSTABLE
  2
AcDbSortentsTable
  3
ObjectDBX Classes
 90
        0
280
     0
281
     0
  0
CLASS
  1
MATERIAL
  2
AcDbMaterial
  3
ObjectDBX Classes
 90
     1153
280
     0
281
     0
  0
CLASS
  1
VISUALSTYLE
  2
AcDbVisualStyle
  3
ObjectDBX Classes
 90
     4095
280
     0
281
     0
  0
CLASS
  1
SCALE
  2
AcDbScale
  3
ObjectDBX Classes
 90
     1153
280
     0
281
     0
  0
CLASS
  1
MLEADERSTYLE
  2
AcDbMLeaderStyle
  3
ACDB_MLEADERSTYLE_CLASS
 90
     4095
280
     0
281
     0
  0
CLASS
  1
CELLSTYLEMAP
  2
AcDbCellStyleMap
  3
ObjectDBX Classes
 90
     1152
280
     0
281
     0
  0
CLASS
  1
ACDBSECTIONVIEWSTYLE
  2
AcDbSectionViewStyle
  3
ObjectDBX Classes
 90
     1025
280
     0
281
     0
  0
CLASS
  1
ACDBDETAILVIEWSTYLE
  2
AcDbDetailViewStyle
  3
ObjectDBX Classes
 90
     1025
280
     0
281
     0
  0
ENDSEC
  0
SECTION
  2
TABLES
  0
TABLE
  2
VPORT
  5
1C2
102
{ACAD_XDICTIONARY
360
9E49
102
}
330
0
100
AcDbSymbolTable
 70
     1
  0
VPORT
  5
9DE3
330
1C2
100
AcDbSymbolTableRecord
100
AcDbViewportTableRecord
  2
*Active
 70
     0
 10
0.0
 20
0.0
 11
1.0
 21
1.0
 12
12529.21277946487
 22
22979.64482634794
 13
0.0
 23
0.0
 14
50.0
 24
50.0
 15
500.0
 25
500.0
 16
0.0
 26
0.0
 36
1.0
 17
0.0
 27
0.0
 37
0.0
 40
43420.76949177397
 41
2.614509246088193
 42
50.0
 43
0.0
 44
0.0
 50
0.0
 51
0.0
 71
     0
 72
   100
 73
     1
 74
     0
 75
     0
 76
     0
 77
     0
 78
     0
281
     0
 65
     1
110
0.0
120
0.0
130
0.0
111
1.0
121
0.0
131
0.0
112
0.0
122
1.0
132
0.0
 79
     0
146
0.0
1001
ACAD_NAV_VCDISPLAY
1070
     3
  0
ENDTAB
  0
TABLE
  2
LTYPE
  5
1BF
330
0
100
AcDbSymbolTable
 70
     4
  0
LTYPE
  5
1CB
330
1BF
100
AcDbSymbolTableRecord
100
AcDbLinetypeTableRecord
  2
BYBLOCK
 70
     0
  3

 72
    65
 73
     0
 40
0.0
  0
LTYPE
  5
1CC
330
1BF
100
AcDbSymbolTableRecord
100
AcDbLinetypeTableRecord
  2
BYLAYER
 70
     0
  3

 72
    65
 73
     0
 40
0.0
  0
LTYPE
  5
1CD
330
1BF
100
AcDbSymbolTableRecord
100
AcDbLinetypeTableRecord
  2
CONTINUOUS
 70
     0
  3
実線
 72
    65
 73
     0
 40
0.0
  0
LTYPE
  5
B419
330
1BF
100
AcDbSymbolTableRecord
100
AcDbLinetypeTableRecord
  2
PHANTOM2
 70
     0
  3
___ _ _ ___ _ _ ___ _ _ ___ _ _
 72
    65
 73
     6
 40
1.25
 49
0.625
 74
     0
 49
-0.125
 74
     0
 49
0.125
 74
     0
 49
-0.125
 74
     0
 49
0.125
 74
     0
 49
-0.125
 74
     0
  0
LTYPE
  5
18388
330
1BF
100
AcDbSymbolTableRecord
100
AcDbLinetypeTableRecord
  2
DASHDOT
 70
     0
  3
__ . __ . __ . __ . __ . __ . __ . __ . __ . __
 72
    65
 73
     4
 40
1.0
 49
0.5
 74
     0
 49
-0.25
 74
     0
 49
0.0
 74
     0
 49
-0.25
 74
     0
  0
LTYPE
  5
18389
330
1BF
100
AcDbSymbolTableRecord
100
AcDbLinetypeTableRecord
  2
DOT2
 70
     0
  3
...............................................
 72
    65
 73
     2
 40
0.125
 49
0.0
 74
     0
 49
-0.125
 74
     0
  0
ENDTAB
  0
TABLE
  2
LAYER
  5
1BC
102
{ACAD_XDICTIONARY
360
A9B
102
}
330
0
100
AcDbSymbolTable
 70
     7
  0
LAYER
  5
1C8
102
{ACAD_XDICTIONARY
360
9E3A
102
}
330
1BC
100
AcDbSymbolTableRecord
100
AcDbLayerTableRecord
  2
0
 70
     0
 62
     7
  6
CONTINUOUS
370
    -3
390
25C
  0
LAYER
  5
204
102
{ACAD_XDICTIONARY
360
9E3C
102
}
330
1BC
100
AcDbSymbolTableRecord
100
AcDbLayerTableRecord
  2
MOJI
 70
     0
 62
     7
  6
CONTINUOUS
370
    -3
390
25C
  0
LAYER
  5
205
102
{ACAD_XDICTIONARY
360
9E3E
102
}
330
1BC
100
AcDbSymbolTableRecord
100
AcDbLayerTableRecord
  2
WAKU
 70
     0
 62
     4
  6
CONTINUOUS
370
    -3
390
25C
  0
LAYER
  5
1838A
102
{ACAD_XDICTIONARY
360
1838B
102
}
330
1BC
100
AcDbSymbolTableRecord
100
AcDbLayerTableRecord
  2
SUNPO
 70
     0
 62
     1
  6
CONTINUOUS
370
    -3
390
25C
  0
LAYER
  5
1838C
102
{ACAD_XDICTIONARY
360
1838D
102
}
330
1BC
100
AcDbSymbolTableRecord
100
AcDbLayerTableRecord
  2
SUGATA
 70
     0
 62
     7
  6
CONTINUOUS
370
    -3
390
25C
  0
LAYER
  5
1838E
102
{ACAD_XDICTIONARY
360
1838F
102
}
330
1BC
100
AcDbSymbolTableRecord
100
AcDbLayerTableRecord
  2
SWAKU
 70
     0
 62
     7
  6
CONTINUOUS
370
    -3
390
25C
  0
LAYER
  5
18390
102
{ACAD_XDICTIONARY
360
18391
102
}
330
1BC
100
AcDbSymbolTableRecord
100
AcDbLayerTableRecord
  2
THUSIN
 70
     0
 62
     7
  6
CONTINUOUS
370
     9
390
18389
  0
ENDTAB
  0
TABLE
  2
STYLE
  5
1BD
330
0
100
AcDbSymbolTable
 70
     1
  0
STYLE
  5
1C9
330
1BD
100
AcDbSymbolTableRecord
100
AcDbTextStyleTableRecord
  2
STANDARD
 70
     0
 40
0.0
 41
1.0
 50
0.0
 71
     0
 42
300.0
  3
SIMPLEX
  4
BIGFONT
  0
ENDTAB
  0
TABLE
  2
VIEW
  5
1C0
330
0
100
AcDbSymbolTable
 70
    34
  0
VIEW
  5
1DF
330
1C0
100
AcDbSymbolTableRecord
100
AcDbViewTableRecord
  2
7
 70
     0
 40
28899.10086004691
 10
20675.0
 20
42149.55043002345
 41
42050.0
 11
0.0
 21
0.0
 31
1.0
 12
0.0
 22
0.0
 32
0.0
 42
50.0
 43
0.0
 44
0.0
 50
0.0
 71
     0
281
     0
 72
     0
  0
VIEW
  5
1E0
330
1C0
100
AcDbSymbolTableRecord
100
AcDbViewTableRecord
  2
1
 70
     0
 40
28589.83580922596
 10
20600.0
 20
16694.91790461298
 41
41600.0
 11
0.0
 21
0.0
 31
1.0
 12
0.0
 22
0.0
 32
0.0
 42
50.0
 43
0.0
 44
0.0
 50
0.0
 71
     0
281
     0
 72
     0
  0
VIEW
  5
1E1
330
1C0
100
AcDbSymbolTableRecord
100
AcDbViewTableRecord
  2
4
 70
     0
 40
28211.8451915559
 10
20325.0
 20
29605.92259577795
 41
41050.0
 11
0.0
 21
0.0
 31
1.0
 12
0.0
 22
0.0
 32
0.0
 42
50.0
 43
0.0
 44
0.0
 50
0.0
 71
     0
281
     0
 72
     0
  0
VIEW
  5
1E2
330
1C0
100
AcDbSymbolTableRecord
100
AcDbViewTableRecord
  2
9
 70
     0
 40
28555.47302580141
 10
59175.0
 20
41727.7365129007
 41
41550.0
 11
0.0
 21
0.0
 31
1.0
 12
0.0
 22
0.0
 32
0.0
 42
50.0
 43
0.0
 44
0.0
 50
0.0
 71
     0
281
     0
 72
     0
  0
VIEW
  5
1E3
330
1C0
100
AcDbSymbolTableRecord
100
AcDbViewTableRecord
  2
8
 70
     0
 40
28300.0
 10
45889.1353811149
 20
41850.0
 41
41178.2707622298
 11
0.0
 21
0.0
 31
1.0
 12
0.0
 22
0.0
 32
0.0
 42
50.0
 43
0.0
 44
0.0
 50
0.0
 71
     0
281
     0
 72
     0
  0
VIEW
  5
1E4
330
1C0
100
AcDbSymbolTableRecord
100
AcDbViewTableRecord
  2
2
 70
     0
 40
26900.0
 10
45020.59158134243
 20
17450.0
 41
39141.18316268488
 11
0.0
 21
0.0
 31
1.0
 12
0.0
 22
0.0
 32
0.0
 42
50.0
 43
0.0
 44
0.0
 50
0.0
 71
     0
281
     0
 72
     0
  0
VIEW
  5
1E5
330
1C0
100
AcDbSymbolTableRecord
100
AcDbViewTableRecord
  2
3
 70
     0
 40
28349.2963252541
 10
59125.0
 20
18074.64816262705
 41
41250.0
 11
0.0
 21
0.0
 31
1.0
 12
0.0
 22
0.0
 32
0.0
 42
50.0
 43
0.0
 44
0.0
 50
0.0
 71
     0
281
     0
 72
     0
  0
VIEW
  5
1E6
330
1C0
100
AcDbSymbolTableRecord
100
AcDbViewTableRecord
  2
6
 70
     0
 40
28314.93354182955
 10
59150.0
 20
30107.46677091478
 41
41200.0
 11
0.0
 21
0.0
 31
1.0
 12
0.0
 22
0.0
 32
0.0
 42
50.0
 43
0.0
 44
0.0
 50
0.0
 71
     0
281
     0
 72
     0
  0
VIEW
  5
1E7
330
1C0
100
AcDbSymbolTableRecord
100
AcDbViewTableRecord
  2
5
 70
     0
 40
27800.0
 10
45825.36973833902
 20
29600.0
 41
40450.73947667804
 11
0.0
 21
0.0
 31
1.0
 12
0.0
 22
0.0
 32
0.0
 42
50.0
 43
0.0
 44
0.0
 50
0.0
 71
     0
281
     0
 72
     0
  0
VIEW
  5
1E8
330
1C0
100
AcDbSymbolTableRecord
100
AcDbViewTableRecord
  2
0
 70
     0
 40
59400.0
 10
43215.35836177474
 20
29700.0
 41
86430.71672354949
 11
0.0
 21
0.0
 31
1.0
 12
0.0
 22
0.0
 32
0.0
 42
50.0
 43
0.0
 44
0.0
 50
0.0
 71
     0
281
     0
 72
     0
  0
VIEW
  5
1E9
330
1C0
100
AcDbSymbolTableRecord
100
AcDbViewTableRecord
  2
01
 70
     0
 40
15250.0
 10
10894.85210466439
 20
48275.0
 41
22189.70420932878
 11
0.0
 21
0.0
 31
1.0
 12
0.0
 22
0.0
 32
0.0
 42
50.0
 43
0.0
 44
0.0
 50
0.0
 71
     0
281
     0
 72
     0
  0
VIEW
  5
1EA
330
1C0
100
AcDbSymbolTableRecord
100
AcDbViewTableRecord
  2
02
 70
     0
 40
15450.0
 10
23740.35836177474
 20
48175.0
 41
22480.71672354949
 11
0.0
 21
0.0
 31
1.0
 12
0.0
 22
0.0
 32
0.0
 42
50.0
 43
0.0
 44
0.0
 50
0.0
 71
     0
281
     0
 72
     0
  0
VIEW
  5
1EB
330
1C0
100
AcDbSymbolTableRecord
100
AcDbViewTableRecord
  2
03
 70
     0
 40
15650.0
 10
36785.8646188851
 20
48225.0
 41
22771.72923777019
 11
0.0
 21
0.0
 31
1.0
 12
0.0
 22
0.0
 32
0.0
 42
50.0
 43
0.0
 44
0.0
 50
0.0
 71
     0
281
     0
 72
     0
  0
VIEW
  5
1EC
330
1C0
100
AcDbSymbolTableRecord
100
AcDbViewTableRecord
  2
04
 70
     0
 40
15850.0
 10
50231.37087599544
 20
48125.0
 41
23062.7417519909
 11
0.0
 21
0.0
 31
1.0
 12
0.0
 22
0.0
 32
0.0
 42
50.0
 43
0.0
 44
0.0
 50
0.0
 71
     0
281
     0
 72
     0
  0
VIEW
  5
1ED
330
1C0
100
AcDbSymbolTableRecord
100
AcDbViewTableRecord
  2
05
 70
     0
 40
16050.0
 10
63126.8771331058
 20
48025.0
 41
23353.75426621161
 11
0.0
 21
0.0
 31
1.0
 12
0.0
 22
0.0
 32
0.0
 42
50.0
 43
0.0
 44
0.0
 50
0.0
 71
     0
281
     0
 72
     0
  0
VIEW
  5
1EE
330
1C0
100
AcDbSymbolTableRecord
100
AcDbViewTableRecord
  2
06
 70
     0
 40
15600.0
 10
75749.48805460751
 20
48250.0
 41
22698.97610921502
 11
0.0
 21
0.0
 31
1.0
 12
0.0
 22
0.0
 32
0.0
 42
50.0
 43
0.0
 44
0.0
 50
0.0
 71
     0
281
     0
 72
     0
  0
VIEW
  5
1EF
330
1C0
100
AcDbSymbolTableRecord
100
AcDbViewTableRecord
  2
07
 70
     0
 40
15650.0
 10
11185.86461888509
 20
35675.0
 41
22771.72923777019
 11
0.0
 21
0.0
 31
1.0
 12
0.0
 22
0.0
 32
0.0
 42
50.0
 43
0.0
 44
0.0
 50
0.0
 71
     0
281
     0
 72
     0
  0
VIEW
  5
1F0
330
1C0
100
AcDbSymbolTableRecord
100
AcDbViewTableRecord
  2
08
 70
     0
 40
15350.0
 10
23667.60523321957
 20
35675.0
 41
22335.21046643914
 11
0.0
 21
0.0
 31
1.0
 12
0.0
 22
0.0
 32
0.0
 42
50.0
 43
0.0
 44
0.0
 50
0.0
 71
     0
281
     0
 72
     0
  0
VIEW
  5
1F1
330
1C0
100
AcDbSymbolTableRecord
100
AcDbViewTableRecord
  2
09
 70
     0
 40
15750.0
 10
37108.61774744028
 20
35675.0
 41
22917.23549488055
 11
0.0
 21
0.0
 31
1.0
 12
0.0
 22
0.0
 32
0.0
 42
50.0
 43
0.0
 44
0.0
 50
0.0
 71
     0
281
     0
 72
     0
  0
VIEW
  5
1F2
330
1C0
100
AcDbSymbolTableRecord
100
AcDbViewTableRecord
  2
10
 70
     0
 40
15250.0
 10
49644.85210466439
 20
35925.0
 41
22189.70420932878
 11
0.0
 21
0.0
 31
1.0
 12
0.0
 22
0.0
 32
0.0
 42
50.0
 43
0.0
 44
0.0
 50
0.0
 71
     0
281
     0
 72
     0
  0
VIEW
  5
1F3
330
1C0
100
AcDbSymbolTableRecord
100
AcDbViewTableRecord
  2
11
 70
     0
 40
15250.0
 10
62794.8521046644
 20
35875.0
 41
22189.70420932878
 11
0.0
 21
0.0
 31
1.0
 12
0.0
 22
0.0
 32
0.0
 42
50.0
 43
0.0
 44
0.0
 50
0.0
 71
     0
281
     0
 72
     0
  0
VIEW
  5
1F4
330
1C0
100
AcDbSymbolTableRecord
100
AcDbViewTableRecord
  2
12
 70
     0
 40
15450.0
 10
75690.35836177475
 20
35775.0
 41
22480.71672354949
 11
0.0
 21
0.0
 31
1.0
 12
0.0
 22
0.0
 32
0.0
 42
50.0
 43
0.0
 44
0.0
 50
0.0
 71
     0
281
     0
 72
     0
  0
VIEW
  5
1F5
330
1C0
100
AcDbSymbolTableRecord
100
AcDbViewTableRecord
  2
13
 70
     0
 40
15800.0
 10
11294.99431171786
 20
23250.0
 41
22989.98862343572
 11
0.0
 21
0.0
 31
1.0
 12
0.0
 22
0.0
 32
0.0
 42
50.0
 43
0.0
 44
0.0
 50
0.0
 71
     0
281
     0
 72
     0
  0
VIEW
  5
1F6
330
1C0
100
AcDbSymbolTableRecord
100
AcDbViewTableRecord
  2
14
 70
     0
 40
15200.0
 10
23758.4755403868
 20
23350.0
 41
22116.95108077361
 11
0.0
 21
0.0
 31
1.0
 12
0.0
 22
0.0
 32
0.0
 42
50.0
 43
0.0
 44
0.0
 50
0.0
 71
     0
281
     0
 72
     0
  0
VIEW
  5
1F7
330
1C0
100
AcDbSymbolTableRecord
100
AcDbViewTableRecord
  2
15
 70
     0
 40
15500.0
 10
36876.73492605234
 20
23250.0
 41
22553.46985210467
 11
0.0
 21
0.0
 31
1.0
 12
0.0
 22
0.0
 32
0.0
 42
50.0
 43
0.0
 44
0.0
 50
0.0
 71
     0
281
     0
 72
     0
  0
VIEW
  5
1F8
330
1C0
100
AcDbSymbolTableRecord
100
AcDbViewTableRecord
  2
16
 70
     0
 40
15250.0
 10
49644.85210466439
 20
23325.0
 41
22189.70420932878
 11
0.0
 21
0.0
 31
1.0
 12
0.0
 22
0.0
 32
0.0
 42
50.0
 43
0.0
 44
0.0
 50
0.0
 71
     0
281
     0
 72
     0
  0
VIEW
  5
1F9
330
1C0
100
AcDbSymbolTableRecord
100
AcDbViewTableRecord
  2
17
 70
     0
 40
15700.0
 10
62922.24118316268
 20
23250.0
 41
22844.48236632537
 11
0.0
 21
0.0
 31
1.0
 12
0.0
 22
0.0
 32
0.0
 42
50.0
 43
0.0
 44
0.0
 50
0.0
 71
     0
281
     0
 72
     0
  0
VIEW
  5
1FA
330
1C0
100
AcDbSymbolTableRecord
100
AcDbViewTableRecord
  2
18
 70
     0
 40
15600.0
 10
75899.48805460752
 20
23350.0
 41
22698.97610921502
 11
0.0
 21
0.0
 31
1.0
 12
0.0
 22
0.0
 32
0.0
 42
50.0
 43
0.0
 44
0.0
 50
0.0
 71
     0
281
     0
 72
     0
  0
VIEW
  5
1FB
330
1C0
100
AcDbSymbolTableRecord
100
AcDbViewTableRecord
  2
19
 70
     0
 40
16450.0
 10
11767.88964732651
 20
10425.0
 41
23935.77929465302
 11
0.0
 21
0.0
 31
1.0
 12
0.0
 22
0.0
 32
0.0
 42
50.0
 43
0.0
 44
0.0
 50
0.0
 71
     0
281
     0
 72
     0
  0
VIEW
  5
1FC
330
1C0
100
AcDbSymbolTableRecord
100
AcDbViewTableRecord
  2
20
 70
     0
 40
16150.0
 10
24249.63026166098
 20
10675.0
 41
23499.26052332196
 11
0.0
 21
0.0
 31
1.0
 12
0.0
 22
0.0
 32
0.0
 42
50.0
 43
0.0
 44
0.0
 50
0.0
 71
     0
281
     0
 72
     0
  0
VIEW
  5
1FD
330
1C0
100
AcDbSymbolTableRecord
100
AcDbViewTableRecord
  2
21
 70
     0
 40
15400.0
 10
36703.98179749716
 20
10900.0
 41
22407.96359499431
 11
0.0
 21
0.0
 31
1.0
 12
0.0
 22
0.0
 32
0.0
 42
50.0
 43
0.0
 44
0.0
 50
0.0
 71
     0
281
     0
 72
     0
  0
VIEW
  5
1FE
330
1C0
100
AcDbSymbolTableRecord
100
AcDbViewTableRecord
  2
22
 70
     0
 40
15400.0
 10
49603.98179749716
 20
10900.0
 41
22407.96359499431
 11
0.0
 21
0.0
 31
1.0
 12
0.0
 22
0.0
 32
0.0
 42
50.0
 43
0.0
 44
0.0
 50
0.0
 71
     0
281
     0
 72
     0
  0
VIEW
  5
1FF
330
1C0
100
AcDbSymbolTableRecord
100
AcDbViewTableRecord
  2
23
 70
     0
 40
15750.0
 10
63108.61774744027
 20
10925.0
 41
22917.23549488055
 11
0.0
 21
0.0
 31
1.0
 12
0.0
 22
0.0
 32
0.0
 42
50.0
 43
0.0
 44
0.0
 50
0.0
 71
     0
281
     0
 72
     0
  0
VIEW
  5
200
330
1C0
100
AcDbSymbolTableRecord
100
AcDbViewTableRecord
  2
24
 70
     0
 40
15500.0
 10
75626.73492605234
 20
11000.0
 41
22553.46985210467
 11
0.0
 21
0.0
 31
1.0
 12
0.0
 22
0.0
 32
0.0
 42
50.0
 43
0.0
 44
0.0
 50
0.0
 71
     0
281
     0
 72
     0
  0
ENDTAB
  0
TABLE
  2
UCS
  5
1C1
330
0
100
AcDbSymbolTable
 70
     0
  0
ENDTAB
  0
TABLE
  2
APPID
  5
1C3
330
0
100
AcDbSymbolTable
 70
    19
  0
APPID
  5
1CA
330
1C3
100
AcDbSymbolTableRecord
100
AcDbRegAppTableRecord
  2
ACAD
 70
     0
  0
APPID
  5
5949
330
1C3
100
AcDbSymbolTableRecord
100
AcDbRegAppTableRecord
  2
ACAD_PSEXT
 70
     0
  0
APPID
  5
594A
330
1C3
100
AcDbSymbolTableRecord
100
AcDbRegAppTableRecord
  2
ACAD_EXEMPT_FROM_CAD_STANDARDS
 70
     0
  0
APPID
  5
6D4E
330
1C3
100
AcDbSymbolTableRecord
100
AcDbRegAppTableRecord
  2
AcAecLayerStandard
 70
     0
  0
APPID
  5
6D4F
330
1C3
100
AcDbSymbolTableRecord
100
AcDbRegAppTableRecord
  2
ACAD_DSTYLE_DIMTEXT_FILL
 70
     0
  0
APPID
  5
6D50
330
1C3
100
AcDbSymbolTableRecord
100
AcDbRegAppTableRecord
  2
ACAD_DSTYLE_DIMEXT_LENGTH
 70
     0
  0
APPID
  5
6D51
330
1C3
100
AcDbSymbolTableRecord
100
AcDbRegAppTableRecord
  2
ACAD_DSTYLE_DIMEXT_ENABLED
 70
     0
  0
APPID
  5
6D52
330
1C3
100
AcDbSymbolTableRecord
100
AcDbRegAppTableRecord
  2
ACAD_DSTYLE_DIM_LINETYPE
 70
     0
  0
APPID
  5
6D53
330
1C3
100
AcDbSymbolTableRecord
100
AcDbRegAppTableRecord
  2
ACAD_DSTYLE_DIM_EXT1_LINETYPE
 70
     0
  0
APPID
  5
6D54
330
1C3
100
AcDbSymbolTableRecord
100
AcDbRegAppTableRecord
  2
ACAD_DSTYLE_DIM_EXT2_LINETYPE
 70
     0
  0
APPID
  5
9E32
330
1C3
100
AcDbSymbolTableRecord
100
AcDbRegAppTableRecord
  2
ACAD_MLEADERVER
 70
     0
  0
APPID
  5
B42C
330
1C3
100
AcDbSymbolTableRecord
100
AcDbRegAppTableRecord
  2
ACAD_NAV_VCDISPLAY
 70
     0
  0
APPID
  5
B4C9
330
1C3
100
AcDbSymbolTableRecord
100
AcDbRegAppTableRecord
  2
AcCmTransparency
 70
     0
  0
APPID
  5
EFC2
330
1C3
100
AcDbSymbolTableRecord
100
AcDbRegAppTableRecord
  2
ACAD_DSTYLE_DIMJOGGED_JOGANGLE_SYMBOL
 70
     0
  0
APPID
  5
EFC3
330
1C3
100
AcDbSymbolTableRecord
100
AcDbRegAppTableRecord
  2
ACAD_DSTYLE_DIMJAG
 70
     0
  0
APPID
  5
EFC4
330
1C3
100
AcDbSymbolTableRecord
100
AcDbRegAppTableRecord
  2
ACAD_DSTYLE_DIMTALN
 70
     0
  0
APPID
  5
EFC5
330
1C3
100
AcDbSymbolTableRecord
100
AcDbRegAppTableRecord
  2
ACAD_DSTYLE_DIMBREAK
 70
     0
  0
APPID
  5
EFC6
330
1C3
100
AcDbSymbolTableRecord
100
AcDbRegAppTableRecord
  2
ACAD_SPLINE_DATA
 70
     0
  0
APPID
  5
EFC7
330
1C3
100
AcDbSymbolTableRecord
100
AcDbRegAppTableRecord
  2
ACAD_SPLINE_DATA2
 70
     0
  0
ENDTAB
  0
TABLE
  2
DIMSTYLE
  5
1C4
330
0
100
AcDbSymbolTable
 70
     2
100
AcDbDimStyleTable
 71
     1
340
203
  0
DIMSTYLE
105
203
330
1C4
100
AcDbSymbolTableRecord
100
AcDbDimStyleTableRecord
  2
SCALE100
 70
     0
 41
250.0
 42
0.0
 43
700.0
 44
300.0
 73
     0
 74
     0
 77
     1
 78
     8
 79
     2
140
300.0
141
0.0
144
0.1
145
0.8333333333333333
147
100.0
172
     1
173
     1
174
     1
176
   256
177
   256
178
     4
179
     1
271
     3
272
     3
279
     2
284
     8
285
     8
286
     8
340
1C9
341
253
343
253
344
253
  0
DIMSTYLE
105
32F3
330
1C4
100
AcDbSymbolTableRecord
100
AcDbDimStyleTableRecord
  2
STANDARD
 70
     0
340
1C9
  0
ENDTAB
  0
TABLE
  2
BLOCK_RECORD
  5
1BB
330
0
100
AcDbSymbolTable
 70
     2
  0
BLOCK_RECORD
  5
1D1
102
{ACAD_XDICTIONARY
360
295
102
}
330
1BB
100
AcDbSymbolTableRecord
100
AcDbBlockTableRecord
  2
*MODEL_SPACE
340
25F
  0
BLOCK_RECORD
  5
1CE
102
{ACAD_XDICTIONARY
360
293
102
}
330
1BB
100
AcDbSymbolTableRecord
100
AcDbBlockTableRecord
  2
*PAPER_SPACE
340
260
  0
BLOCK_RECORD
  5
253
330
1BB
100
AcDbSymbolTableRecord
100
AcDbBlockTableRecord
  2
_OPEN30
340
0
  0
BLOCK_RECORD
  5
18394
102
{ACAD_XDICTIONARY
360
18590
102
}
330
1BB
100
AcDbSymbolTableRecord
100
AcDbBlockTableRecord
  2
CP-WU9100WJ／9100BJ_STANDARD_SET_USL-901
340
0
102
{BLKREFS
331
18594
102
}
  0
ENDTAB
  0
ENDSEC
  0
SECTION
  2
BLOCKS
  0
BLOCK
  5
242
330
1D1
100
AcDbEntity
  8
0
100
AcDbBlockBegin
  2
*MODEL_SPACE
 70
     0
 10
0.0
 20
0.0
 30
0.0
  3
*MODEL_SPACE
  1

  0
ENDBLK
  5
243
330
1D1
100
AcDbEntity
  8
0
100
AcDbBlockEnd
  0
BLOCK
  5
240
330
1CE
100
AcDbEntity
 67
     1
  8
0
100
AcDbBlockBegin
  2
*PAPER_SPACE
 70
     0
 10
0.0
 20
0.0
 30
0.0
  3
*PAPER_SPACE
  1

  0
ENDBLK
  5
241
330
1CE
100
AcDbEntity
 67
     1
  8
0
100
AcDbBlockEnd
  0
BLOCK
  5
254
330
253
100
AcDbEntity
  8
0
100
AcDbBlockBegin
  2
_OPEN30
 70
     0
 10
0.0
 20
0.0
 30
0.0
  3
_OPEN30
  1

  0
LINE
  5
255
330
253
100
AcDbEntity
  8
0
  6
ByBlock
 62
     0
100
AcDbLine
 10
-1.0
 20
0.26794919
 30
0.0
 11
0.0
 21
0.0
 31
0.0
  0
LINE
  5
256
330
253
100
AcDbEntity
  8
0
  6
ByBlock
 62
     0
100
AcDbLine
 10
0.0
 20
0.0
 30
0.0
 11
-1.0
 21
-0.26794919
 31
0.0
  0
LINE
  5
257
330
253
100
AcDbEntity
  8
0
  6
ByBlock
 62
     0
100
AcDbLine
 10
0.0
 20
0.0
 30
0.0
 11
-1.0
 21
0.0
 31
0.0
  0
ENDBLK
  5
258
330
253
100
AcDbEntity
  8
0
100
AcDbBlockEnd
  0
BLOCK
  5
18592
330
18394
100
AcDbEntity
  8
0
100
AcDbBlockBegin
  2
CP-WU9100WJ／9100BJ_STANDARD_SET_USL-901
 70
     0
 10
0.0
 20
0.0
 30
0.0
  3
CP-WU9100WJ／9100BJ_STANDARD_SET_USL-901
  1

  0
TEXT
  5
18395
330
18394
100
AcDbEntity
  8
SUNPO
 62
     4
100
AcDbText
 10
19996.00758758889
 20
6107.953290769779
 30
0.0
 40
300.0
  1

 50
90.0
100
AcDbText
  0
TEXT
  5
18396
330
18394
100
AcDbEntity
  8
MOJI
 62
     7
100
AcDbText
 10
999.9999850678669
 20
100.0
 30
0.0
 40
500.0
  1
プロジェクター
 41
0.9
100
AcDbText
  0
LINE
  5
18397
330
18394
100
AcDbEntity
  8
SUNPO
  6
Continuous
 62
     1
100
AcDbLine
 10
3984.999985067874
 20
-7700.000000000011
 30
0.0
 11
-885.0000149321282
 21
-7700.000000000011
 31
0.0
  0
LINE
  5
18398
330
18394
100
AcDbEntity
  8
SUNPO
  6
Continuous
 62
     1
100
AcDbLine
 10
-1135.000014932128
 20
-6900.000000000011
 30
0.0
 11
-1135.000014932128
 21
-7900.000000000011
 31
0.0
  0
LINE
  5
18399
330
18394
100
AcDbEntity
  8
SUNPO
  6
Continuous
 62
     1
100
AcDbLine
 10
-885.0000149321282
 20
-7700.000000000011
 30
0.0
 11
-1135.000014932128
 21
-7700.000000000011
 31
0.0
  0
LINE
  5
1839A
330
18394
100
AcDbEntity
  8
SUNPO
  6
Continuous
 62
     1
100
AcDbLine
 10
-885.0000149321282
 20
-7766.986328125011
 30
0.0
 11
-1135.000014932128
 21
-7700.000000000011
 31
0.0
  0
LINE
  5
1839B
330
18394
100
AcDbEntity
  8
SUNPO
  6
Continuous
 62
     1
100
AcDbLine
 10
-1135.000014932128
 20
-7700.000000000011
 30
0.0
 11
-885.0000149321282
 21
-7633.013671875011
 31
0.0
  0
TEXT
  5
1839C
330
18394
100
AcDbEntity
  8
SUNPO
 62
     4
100
AcDbText
 10
1164.285699352576
 20
-7600.000000000012
 30
0.0
 40
300.0
  1
537
 72
     1
 11
1549.999985066862
 21
-7600.000000000012
 31
0.0
100
AcDbText
  0
LINE
  5
1839D
330
18394
100
AcDbEntity
  8
SUNPO
  6
Continuous
 62
     1
100
AcDbLine
 10
4234.999985067874
 20
-6900.000000000011
 30
0.0
 11
4234.999985067874
 21
-7900.000000000011
 31
0.0
  0
LINE
  5
1839E
330
18394
100
AcDbEntity
  8
SUNPO
  6
Continuous
 62
     1
100
AcDbLine
 10
4234.999985067874
 20
-7700.000000000011
 30
0.0
 11
3984.999985067874
 21
-7700.000000000011
 31
0.0
  0
LINE
  5
1839F
330
18394
100
AcDbEntity
  8
SUNPO
  6
Continuous
 62
     1
100
AcDbLine
 10
3984.999985067874
 20
-7633.013671875011
 30
0.0
 11
4234.999985067874
 21
-7700.000000000011
 31
0.0
  0
LINE
  5
183A0
330
18394
100
AcDbEntity
  8
SUNPO
  6
Continuous
 62
     1
100
AcDbLine
 10
4234.999985067874
 20
-7700.000000000011
 30
0.0
 11
3984.999985067874
 21
-7766.986328125011
 31
0.0
  0
LINE
  5
183A1
330
18394
100
AcDbEntity
  8
SWAKU
  6
Continuous
 62
     1
100
AcDbLine
 10
10499.99998506786
 20
-17500.0
 30
0.0
 11
-1500.000014932131
 21
-17500.0
 31
0.0
  0
LINE
  5
183A2
330
18394
100
AcDbEntity
  8
SWAKU
  6
Continuous
 62
     1
100
AcDbLine
 10
2999.999985067867
 20
-23700.0
 30
0.0
 11
2999.999985067856
 21
-10700.00000000001
 31
0.0
  0
LINE
  5
183A3
330
18394
100
AcDbEntity
  8
SWAKU
  6
Continuous
 62
     1
100
AcDbLine
 10
10499.99998506786
 20
-15700.0
 30
0.0
 11
-1500.000014932131
 21
-15700.0
 31
0.0
  0
LINE
  5
183A4
330
18394
100
AcDbEntity
  8
SWAKU
  6
Continuous
 62
     1
100
AcDbLine
 10
10499.99998506786
 20
-15200.0
 30
0.0
 11
499.9999850678341
 21
-15200.0
 31
0.0
  0
LINE
  5
183A5
330
18394
100
AcDbEntity
  8
SWAKU
  6
Continuous
 62
     1
100
AcDbLine
 10
10499.99998506786
 20
-14200.0
 30
0.0
 11
499.9999850678341
 21
-14200.0
 31
0.0
  0
LINE
  5
183A6
330
18394
100
AcDbEntity
  8
SWAKU
  6
Continuous
 62
     1
100
AcDbLine
 10
10499.99998506786
 20
-14700.0
 30
0.0
 11
499.9999850678341
 21
-14700.0
 31
0.0
  0
LINE
  5
183A7
330
18394
100
AcDbEntity
  8
SWAKU
  6
Continuous
 62
     1
100
AcDbLine
 10
10499.99998506786
 20
-13100.0
 30
0.0
 11
-1500.000014932131
 21
-13100.0
 31
0.0
  0
LINE
  5
183A8
330
18394
100
AcDbEntity
  8
SWAKU
  6
Continuous
 62
     1
100
AcDbLine
 10
10499.99998506786
 20
-16300.0
 30
0.0
 11
-1500.000014932131
 21
-16300.0
 31
0.0
  0
LINE
  5
183A9
330
18394
100
AcDbEntity
  8
SWAKU
  6
Continuous
 62
     1
100
AcDbLine
 10
10499.99998506786
 20
-16900.0
 30
0.0
 11
-1500.000014932131
 21
-16900.0
 31
0.0
  0
TEXT
  5
183AA
330
18394
100
AcDbEntity
  8
MOJI
 62
     7
100
AcDbText
 10
-1100.000014932102
 20
-12400.00000000001
 30
0.0
 40
300.0
  1
表示素子
100
AcDbText
  0
TEXT
  5
183AB
330
18394
100
AcDbEntity
  8
MOJI
 62
     7
100
AcDbText
 10
-1100.000014932102
 20
-13000.0
 30
0.0
 40
300.0
  1
解 像 度
100
AcDbText
  0
TEXT
  5
183AC
330
18394
100
AcDbEntity
  8
MOJI
 62
     7
100
AcDbText
 10
-1100.000014932102
 20
-13600.0
 30
0.0
 40
300.0
  1
コンピュータ入力端子
 41
0.9
100
AcDbText
  0
TEXT
  5
183AD
330
18394
100
AcDbEntity
  8
MOJI
 62
     7
100
AcDbText
 10
3399.999985067896
 20
-13600.0
 30
0.0
 40
300.0
  1
Dサブ15ピンミニ×1
100
AcDbText
  0
TEXT
  5
183AE
330
18394
100
AcDbEntity
  8
MOJI
 62
     7
100
AcDbText
 10
-1100.000014932116
 20
-14600.0
 30
0.0
 40
300.0
  1
デジタル
 41
0.8
100
AcDbText
  0
TEXT
  5
183AF
330
18394
100
AcDbEntity
  8
MOJI
 62
     7
100
AcDbText
 10
-1100.000014932144
 20
-16800.0
 30
0.0
 40
300.0
  1
モニタ出力端子
100
AcDbText
  0
TEXT
  5
183B0
330
18394
100
AcDbEntity
  8
MOJI
 62
     7
100
AcDbText
 10
3399.999985067852
 20
-16800.0
 30
0.0
 40
300.0
  1
Dサブ15ピンミニ×1
100
AcDbText
  0
TEXT
  5
183B1
330
18394
100
AcDbEntity
  8
MOJI
 62
     7
100
AcDbText
 10
-1100.000014932144
 20
-17400.0
 30
0.0
 40
300.0
  1
コントロール端子
 41
0.9
100
AcDbText
  0
TEXT
  5
183B2
330
18394
100
AcDbEntity
  8
MOJI
 62
     7
100
AcDbText
 10
3399.999985067852
 20
-17400.0
 30
0.0
 40
300.0
  1
Dサブ9ピン×1（RS-232C）
100
AcDbText
  0
LINE
  5
183B3
330
18394
100
AcDbEntity
  8
SWAKU
  6
Continuous
 62
     1
100
AcDbLine
 10
10499.99998506786
 20
-20700.0
 30
0.0
 11
-1500.000014932131
 21
-20700.0
 31
0.0
  0
TEXT
  5
183B4
330
18394
100
AcDbEntity
  8
MOJI
 62
     7
100
AcDbText
 10
-1100.000014932138
 20
-19750.0
 30
0.0
 40
300.0
  1
リモートコントロール信号端子
 41
0.75
100
AcDbText
  0
TEXT
  5
183B5
330
18394
100
AcDbEntity
  8
MOJI
 62
     7
100
AcDbText
 10
3399.99998506786
 20
-20000.0
 30
0.0
 40
300.0
  1
出力：ステレオミニ×1
100
AcDbText
  0
TEXT
  5
183B6
330
18394
100
AcDbEntity
  8
MOJI
 62
     7
100
AcDbText
 10
-1100.000014932131
 20
-23000.0
 30
0.0
 40
300.0
  1
質    量（本体）
100
AcDbText
  0
LINE
  5
183B7
330
18394
100
AcDbEntity
  8
SWAKU
  6
Continuous
 62
     1
100
AcDbLine
 10
10499.99998506786
 20
-13700.0
 30
0.0
 11
-1500.000014932131
 21
-13700.0
 31
0.0
  0
TEXT
  5
183B8
330
18394
100
AcDbEntity
  8
MOJI
 62
     7
100
AcDbText
 10
-1100.000014932102
 20
-11800.00000000001
 30
0.0
 40
300.0
  1
表示方式
100
AcDbText
  0
LINE
  5
183B9
330
18394
100
AcDbEntity
  8
SWAKU
  6
Continuous
 62
     1
100
AcDbLine
 10
10499.99998506786
 20
-21300.0
 30
0.0
 11
-1500.000014932131
 21
-21300.0
 31
0.0
  0
LINE
  5
183BA
330
18394
100
AcDbEntity
  8
SWAKU
  6
Continuous
 62
     1
100
AcDbLine
 10
10499.99998506786
 20
-21900.0
 30
0.0
 11
-1500.000014932131
 21
-21900.0
 31
0.0
  0
TEXT
  5
183BB
330
18394
100
AcDbEntity
  8
MOJI
 62
     7
100
AcDbText
 10
-1100.000014932136
 20
-21800.0
 30
0.0
 40
300.0
  1
電　　源
100
AcDbText
  0
TEXT
  5
183BC
330
18394
100
AcDbEntity
  8
MOJI
 62
     7
100
AcDbText
 10
3399.99998506786
 20
-21800.0
 30
0.0
 40
300.0
  1
AC100V（50/60Hz）
100
AcDbText
  0
TEXT
  5
183BD
330
18394
100
AcDbEntity
  8
MOJI
 62
     7
100
AcDbText
 10
-1100.000014932131
 20
-22400.0
 30
0.0
 40
300.0
  1
消 費 電 力
100
AcDbText
  0
LINE
  5
183BE
330
18394
100
AcDbEntity
  8
SWAKU
  6
Continuous
 62
     1
100
AcDbLine
 10
10499.99998506786
 20
-20100.0
 30
0.0
 11
-1500.000014932131
 21
-20100.0
 31
0.0
  0
TEXT
  5
183BF
330
18394
100
AcDbEntity
  8
MOJI
 62
     7
100
AcDbText
 10
-1100.000014932131
 20
-20600.0
 30
0.0
 40
300.0
  1
投写レンズ（別売り）
100
AcDbText
  0
TEXT
  5
183C0
330
18394
100
AcDbEntity
  8
MOJI
 62
     7
100
AcDbText
 10
3399.999985067867
 20
-20600.0
 30
0.0
 40
300.0
  1
電動ズーム1.3倍、電動フォーカス
100
AcDbText
  0
TEXT
  5
183C1
330
18394
100
AcDbEntity
  8
MOJI
 62
     7
100
AcDbText
 10
-1100.000014932131
 20
-21200.0
 30
0.0
 40
300.0
  1
レンズシフト機能
100
AcDbText
  0
TEXT
  5
183C2
330
18394
100
AcDbEntity
  8
MOJI
 62
     7
100
AcDbText
 10
3399.999985067867
 20
-21200.0
 30
0.0
 40
300.0
  1
電動（垂直0～+50%%%、水平±10%%%）
100
AcDbText
  0
LINE
  5
183C3
330
18394
100
AcDbEntity
  8
SWAKU
  6
Continuous
 62
     1
100
AcDbLine
 10
10499.99998506786
 20
-12500.0
 30
0.0
 11
-1500.000014932131
 21
-12500.0
 31
0.0
  0
TEXT
  5
183C4
330
18394
100
AcDbEntity
  8
MOJI
 62
     7
100
AcDbText
 10
-1100.000014932102
 20
-11200.0
 30
0.0
 40
300.0
  1
光 出 力
100
AcDbText
  0
TEXT
  5
183C5
330
18394
100
AcDbEntity
  8
MOJI
 62
     7
100
AcDbText
 10
-1100.000014932131
 20
-18000.0
 30
0.0
 40
300.0
  1
LAN端子
100
AcDbText
  0
TEXT
  5
183C6
330
18394
100
AcDbEntity
  8
MOJI
 62
     7
100
AcDbText
 10
3399.999985067867
 20
-18000.0
 30
0.0
 40
300.0
  1
RJ45×1
100
AcDbText
  0
TEXT
  5
183C7
330
18394
100
AcDbEntity
  8
MOJI
 62
     7
100
AcDbText
 10
-1100.000014932138
 20
-18750.0
 30
0.0
 40
300.0
  1
ワイヤレス端子
100
AcDbText
  0
TEXT
  5
183C8
330
18394
100
AcDbEntity
  8
MOJI
 62
     7
100
AcDbText
 10
3399.99998506786
 20
-18500.0
 30
0.0
 40
300.0
  1
USB-A×1
100
AcDbText
  0
TEXT
  5
183C9
330
18394
100
AcDbEntity
  8
MOJI
 62
     7
100
AcDbText
 10
3399.999985067867
 20
-23000.0
 30
0.0
 40
300.0
  1
約17.0kg（レンズ含まず）
100
AcDbText
  0
TEXT
  5
183CA
330
18394
100
AcDbEntity
  8
MOJI
 62
     7
100
AcDbText
 10
3399.999985067867
 20
-22400.0
 30
0.0
 40
300.0
  1
1,110W
100
AcDbText
  0
TEXT
  5
183CB
330
18394
100
AcDbEntity
  8
MOJI
 62
     7
100
AcDbText
 10
3399.999985067881
 20
-15100.0
 30
0.0
 40
300.0
  1
BNC×1
100
AcDbText
  0
LINE
  5
183CC
330
18394
100
AcDbEntity
  8
SWAKU
  6
Continuous
 62
     1
100
AcDbLine
 10
10499.99998506786
 20
-23100.0
 30
0.0
 11
-1500.000014932131
 21
-23100.0
 31
0.0
  0
TEXT
  5
183CD
330
18394
100
AcDbEntity
  8
MOJI
 62
     7
100
AcDbText
 10
-1100.000014932146
 20
-23600.0
 30
0.0
 40
300.0
  1
電源プラグ・コンセント形状
 41
0.8
100
AcDbText
  0
TEXT
  5
183CE
330
18394
100
AcDbEntity
  8
MOJI
 62
     7
100
AcDbText
 10
3399.999985067852
 20
-23600.0
 30
0.0
 40
300.0
  1
IL（アイエル）形（単相100V 20A）
100
AcDbText
  0
TEXT
  5
183CF
330
18394
100
AcDbEntity
  8
MOJI
 62
     7
100
AcDbText
 10
3399.99998506786
 20
-19500.0
 30
0.0
 40
300.0
  1
入力：ステレオミニ×1
100
AcDbText
  0
LINE
  5
183D0
330
18394
100
AcDbEntity
  8
SWAKU
  6
Continuous
 62
     1
100
AcDbLine
 10
10499.99998506786
 20
-11900.0
 30
0.0
 11
-1500.000014932131
 21
-11900.0
 31
0.0
  0
TEXT
  5
183D1
330
18394
100
AcDbEntity
  8
MOJI
 62
     7
100
AcDbText
 10
3399.999985067881
 20
-14100.0
 30
0.0
 40
300.0
  1
HDMI×2
100
AcDbText
  0
LINE
  5
183D2
330
18394
100
AcDbEntity
  8
SWAKU
  6
Continuous
 62
     1
100
AcDbLine
 10
10499.99998506786
 20
-11300.00000000001
 30
0.0
 11
-1500.000014932131
 21
-11300.00000000001
 31
0.0
  0
LINE
  5
183D3
330
18394
100
AcDbEntity
  8
SWAKU
  6
Continuous
 62
     1
100
AcDbLine
 10
499.9999850678377
 20
-15700.0
 30
0.0
 11
499.9999850678377
 21
-13700.0
 31
0.0
  0
TEXT
  5
183D4
330
18394
100
AcDbEntity
  8
MOJI
 62
     7
100
AcDbText
 10
599.9999850678523
 20
-14100.00000000002
 30
0.0
 40
300.0
  1
HDMI入力端子
 41
0.8
100
AcDbText
  0
TEXT
  5
183D5
330
18394
100
AcDbEntity
  8
MOJI
 62
     7
100
AcDbText
 10
599.9999850678523
 20
-15100.00000000002
 30
0.0
 40
300.0
  1
SDI入力端子
 41
0.8
100
AcDbText
  0
TEXT
  5
183D6
330
18394
100
AcDbEntity
  8
MOJI
 62
     7
100
AcDbText
 10
3399.99998506786
 20
-19000.0
 30
0.0
 40
300.0
  1
USBワイヤレスアダプター（別売り）接続用
 41
0.9
100
AcDbText
  0
LINE
  5
183D7
330
18394
100
AcDbEntity
  8
SWAKU
  6
Continuous
 62
     1
100
AcDbLine
 10
10499.99998506786
 20
-19100.0
 30
0.0
 11
-1500.000014932138
 21
-19100.0
 31
0.0
  0
TEXT
  5
183D8
330
18394
100
AcDbEntity
  8
MOJI
 62
     7
100
AcDbText
 10
3399.99998506786
 20
-11200.0
 30
0.0
 40
300.0
  1
10,000lm
100
AcDbText
  0
TEXT
  5
183D9
330
18394
100
AcDbEntity
  8
MOJI
 62
     7
100
AcDbText
 10
3399.99998506786
 20
-12400.0
 30
0.0
 40
300.0
  1
0.67型×1枚
100
AcDbText
  0
TEXT
  5
183DA
330
18394
100
AcDbEntity
  8
MOJI
 62
     7
100
AcDbText
 10
3399.99998506786
 20
-13000.00000340526
 30
0.0
 40
300.0
  1
WUXGA（1,920×1,200）
100
AcDbText
  0
LINE
  5
183DB
330
18394
100
AcDbEntity
  8
SWAKU
  6
Continuous
 62
     1
100
AcDbLine
 10
10499.99998506787
 20
-22500.0
 30
0.0
 11
-1500.000014932127
 21
-22500.0
 31
0.0
  0
LINE
  5
183DC
330
18394
100
AcDbEntity
  8
SWAKU
  6
Continuous
 62
     1
100
AcDbLine
 10
10499.99998506786
 20
-18100.0
 30
0.0
 11
-1500.000014932138
 21
-18100.0
 31
0.0
  0
TEXT
  5
183DD
330
18394
100
AcDbEntity
  8
MOJI
 62
     7
100
AcDbText
 10
-1100.00001493216
 20
-16200.0
 30
0.0
 40
300.0
  1
ビデオ入力端子
100
AcDbText
  0
TEXT
  5
183DE
330
18394
100
AcDbEntity
  8
MOJI
 62
     7
100
AcDbText
 10
3399.999985067838
 20
-16200.0
 30
0.0
 40
300.0
  1
BNC×1
100
AcDbText
  0
LINE
  5
183DF
330
18394
100
AcDbEntity
  8
SWAKU
  6
Continuous
 62
     1
100
AcDbLine
 10
10499.99998506787
 20
-15700.0
 30
0.0
 11
-1500.000014932127
 21
-15700.0
 31
0.0
  0
TEXT
  5
183E0
330
18394
100
AcDbEntity
  8
MOJI
 62
     7
100
AcDbText
 10
3399.999985067881
 20
-15600.0
 30
0.0
 40
300.0
  1
DVI-D×1
100
AcDbText
  0
TEXT
  5
183E1
330
18394
100
AcDbEntity
  8
MOJI
 62
     7
100
AcDbText
 10
599.9999850678523
 20
-15600.00000000002
 30
0.0
 40
300.0
  1
DVI-D入力端子
 41
0.8
100
AcDbText
  0
TEXT
  5
183E2
330
18394
100
AcDbEntity
  8
MOJI
 62
     7
100
AcDbText
 10
3399.999985067881
 20
-14600.0
 30
0.0
 40
300.0
  1
RJ45×1
100
AcDbText
  0
TEXT
  5
183E3
330
18394
100
AcDbEntity
  8
MOJI
 62
     7
100
AcDbText
 10
599.9999850678523
 20
-14600.00000000001
 30
0.0
 40
300.0
  1
HDBaseT入力端子
 41
0.7
100
AcDbText
  0
TEXT
  5
183E4
330
18394
100
AcDbEntity
  8
MOJI
 62
     7
100
AcDbText
 10
3399.999985067925
 20
-11800.00000000001
 30
0.0
 40
300.0
  1
1チップDLP 方式
 41
0.9
100
AcDbText
  0
TEXT
  5
183E5
330
18394
100
AcDbEntity
  8
MOJI
 62
     7
100
AcDbText
 10
5344.999985067859
 20
-11600.00000000001
 30
0.0
 40
100.0
  1
R
 41
0.9
 72
     4
 11
5374.99998506786
 21
-11550.0
 31
0.0
100
AcDbText
  0
CIRCLE
  5
183E6
330
18394
100
AcDbEntity
  8
0
100
AcDbCircle
 10
5374.99998506786
 20
-11550.0
 30
0.0
 40
80.0
  0
TEXT
  5
183E7
330
18394
100
AcDbEntity
  8
MOJI
 62
     7
100
AcDbText
 10
-1100.000014932116
 20
-15100.0
 30
0.0
 40
300.0
  1
入力端子
 41
0.8
100
AcDbText
  0
LWPOLYLINE
  5
183E8
330
18394
100
AcDbEntity
  8
SWAKU
  6
Continuous
 62
     2
100
AcDbPolyline
 90
        4
 70
     1
 43
0.0
 10
-1500.000014932131
 20
-10700.00000000001
 10
10499.99998506786
 20
-10700.00000000001
 10
10499.99998506779
 20
-23700.0
 10
-1500.000014932131
 20
-23700.0
  0
LINE
  5
183E9
330
18394
100
AcDbEntity
  8
SUNPO
  6
Continuous
 62
     1
100
AcDbLine
 10
10527.99998506776
 20
-7700.000000000011
 30
0.0
 11
5822.99998506782
 21
-7700.000000000011
 31
0.0
  0
LINE
  5
183EA
330
18394
100
AcDbEntity
  8
SUNPO
  6
Continuous
 62
     1
100
AcDbLine
 10
5572.99998506782
 20
-6900.000000000011
 30
0.0
 11
5572.99998506782
 21
-7900.000000000011
 31
0.0
  0
LINE
  5
183EB
330
18394
100
AcDbEntity
  8
SUNPO
  6
Continuous
 62
     1
100
AcDbLine
 10
5822.99998506782
 20
-7700.000000000011
 30
0.0
 11
5572.99998506782
 21
-7700.000000000011
 31
0.0
  0
LINE
  5
183EC
330
18394
100
AcDbEntity
  8
SUNPO
  6
Continuous
 62
     1
100
AcDbLine
 10
5822.99998506782
 20
-7766.986328125011
 30
0.0
 11
5572.99998506782
 21
-7700.000000000011
 31
0.0
  0
LINE
  5
183ED
330
18394
100
AcDbEntity
  8
SUNPO
  6
Continuous
 62
     1
100
AcDbLine
 10
5572.99998506782
 20
-7700.000000000011
 30
0.0
 11
5822.99998506782
 21
-7633.013671875011
 31
0.0
  0
TEXT
  5
183EE
330
18394
100
AcDbEntity
  8
SUNPO
 62
     4
100
AcDbText
 10
7854.071413639217
 20
-7600.000000000012
 30
0.0
 40
300.0
  1
521
 72
     1
 11
8175.499985067789
 21
-7600.000000000012
 31
0.0
100
AcDbText
  0
LINE
  5
183EF
330
18394
100
AcDbEntity
  8
SUNPO
  6
Continuous
 62
     1
100
AcDbLine
 10
10777.99998506776
 20
-6900.000000000011
 30
0.0
 11
10777.99998506776
 21
-7900.000000000011
 31
0.0
  0
LINE
  5
183F0
330
18394
100
AcDbEntity
  8
SUNPO
  6
Continuous
 62
     1
100
AcDbLine
 10
10777.99998506776
 20
-7700.000000000011
 30
0.0
 11
10527.99998506776
 21
-7700.000000000011
 31
0.0
  0
LINE
  5
183F1
330
18394
100
AcDbEntity
  8
SUNPO
  6
Continuous
 62
     1
100
AcDbLine
 10
10527.99998506776
 20
-7633.013671875011
 30
0.0
 11
10777.99998506776
 21
-7700.000000000011
 31
0.0
  0
LINE
  5
183F2
330
18394
100
AcDbEntity
  8
SUNPO
  6
Continuous
 62
     1
100
AcDbLine
 10
10777.99998506776
 20
-7700.000000000011
 30
0.0
 11
10527.99998506776
 21
-7766.986328125011
 31
0.0
  0
LINE
  5
183F3
330
18394
100
AcDbEntity
  8
SUGATA
 62
     2
100
AcDbLine
 10
1069.858583930199
 20
-6483.000000000011
 30
0.0
 11
2030.14138620242
 21
-6483.000000000011
 31
0.0
  0
LWPOLYLINE
  5
183F4
330
18394
100
AcDbEntity
  8
SUGATA
 62
     2
100
AcDbPolyline
 90
       20
 70
     0
 43
0.0
 10
4209.49998506789
 20
-6227.00000000001
 10
4231.99998506789
 20
-6227.00000000001
 42
0.4142135623731173
 10
4234.999985067886
 20
-6224.00000000001
 10
4234.999985067886
 20
-4910.00000000001
 42
0.4142135623730618
 10
4231.99998506789
 20
-4907.00000000001
 10
4227.475907275391
 20
-4907.00000000001
 10
4227.999985067894
 20
-4897.000000000011
 10
4229.782878937891
 20
-4897.000000000011
 42
0.4348123749645091
 10
4232.775571088667
 20
-4893.790730578719
 10
4227.192818770301
 20
-4813.953652893669
 42
0.393910475611473
 10
4212.229358016415
 20
-4800.000000000011
 10
-1112.229387882107
 20
-4800.000000000011
 42
0.3939104756167947
 10
-1127.192848636015
 20
-4813.95365289396
 10
-1132.775600952889
 20
-4893.790730578835
 42
0.4348123749590444
 10
-1129.78290880211
 20
-4897.000000000011
 10
-1128.000014932109
 20
-4897.000000000011
 10
-1127.475937139614
 20
-4907.00000000001
 10
-1132.000014932109
 20
-4907.00000000001
 42
0.4142135623732006
 10
-1135.000014932113
 20
-4910.00000000001
 10
-1135.000014932113
 20
-5017.568689777527
  0
LWPOLYLINE
  5
183F5
330
18394
100
AcDbEntity
  8
SUGATA
 62
     2
100
AcDbPolyline
 90
        4
 70
     0
 43
0.0
 10
-1135.000014932113
 20
-6118.931310222495
 10
-1135.000014932113
 20
-6224.00000000001
 42
0.4142135623731173
 10
-1132.000014932109
 20
-6227.00000000001
 10
-1109.500014932109
 20
-6227.00000000001
  0
LWPOLYLINE
  5
183F6
330
18394
100
AcDbEntity
  8
SUGATA
 62
     2
100
AcDbPolyline
 90
        3
 70
     0
 43
0.0
 10
-1012.411977967109
 20
-6230.000000000011
 10
-1106.500014932113
 20
-6230.000000000011
 42
-0.4142135623731173
 10
-1109.500014932109
 20
-6227.00000000001
  0
LINE
  5
183F7
330
18394
100
AcDbEntity
  8
SUGATA
 62
     3
370
     9
100
AcDbLine
 10
-1135.000014932113
 20
-6118.931310222495
 30
0.0
 11
-1135.000014932113
 21
-5017.568689777527
 31
0.0
  0
LWPOLYLINE
  5
183F8
330
18394
100
AcDbEntity
  8
SUGATA
 62
     2
100
AcDbPolyline
 90
        8
 70
     0
 43
0.0
 10
-1135.000014932113
 20
-5017.568689777527
 10
-1136.012966744613
 20
-5025.298569295042
 10
-1141.987063120356
 20
-5047.701430706492
 42
0.0652429341236035
 10
-1143.000014932109
 20
-5055.431310222553
 10
-1143.000014932109
 20
-6081.068689777527
 42
0.065242934116524
 10
-1141.987063120574
 20
-6088.798569292714
 10
-1136.012903771367
 20
-6111.201666857185
 10
-1135.000014932113
 20
-6118.931310222495
  0
LINE
  5
183F9
330
18394
100
AcDbEntity
  8
SUGATA
 62
     3
370
     9
100
AcDbLine
 10
-1128.000014932109
 20
-4897.000000000011
 30
0.0
 11
641.2445774303887
 21
-4897.000000000011
 31
0.0
  0
LINE
  5
183FA
330
18394
100
AcDbEntity
  8
SUGATA
 62
     3
370
     9
100
AcDbLine
 10
-1127.475937139614
 20
-4907.00000000001
 30
0.0
 11
627.1705381853898
 21
-4907.00000000001
 31
0.0
  0
LINE
  5
183FB
330
18394
100
AcDbEntity
  8
SUGATA
 62
     3
370
     9
100
AcDbLine
 10
2458.755392702889
 20
-4897.000000000011
 30
0.0
 11
4227.999985067894
 21
-4897.000000000011
 31
0.0
  0
LINE
  5
183FC
330
18394
100
AcDbEntity
  8
SUGATA
 62
     3
370
     9
100
AcDbLine
 10
-885.0000149321131
 20
-4800.000000000011
 30
0.0
 11
-885.0000149321131
 21
-6227.00000000001
 31
0.0
  0
LWPOLYLINE
  5
183FD
330
18394
100
AcDbEntity
  8
SUGATA
 62
     3
370
     9
100
AcDbPolyline
 90
        3
 70
     0
 43
0.0
 10
4227.475907275391
 20
-4907.00000000001
 10
3986.999985067891
 20
-4907.00000000001
 42
-0.4142135623730618
 10
3984.99998506789
 20
-4905.000000000011
  0
LINE
  5
183FE
330
18394
100
AcDbEntity
  8
SUGATA
 62
     3
370
     9
100
AcDbLine
 10
3984.99998506789
 20
-4905.000000000011
 30
0.0
 11
2579.999985067891
 21
-4905.000000000011
 31
0.0
  0
LWPOLYLINE
  5
183FF
330
18394
100
AcDbEntity
  8
SUGATA
 62
     3
370
     9
100
AcDbPolyline
 90
        4
 70
     0
 43
0.0
 10
2579.999985067891
 20
-4905.000000000011
 10
2579.999985067891
 20
-4905.000000000011
 42
-0.4142135623730618
 10
2577.999985067894
 20
-4907.00000000001
 10
2472.829431947892
 20
-4907.00000000001
  0
LWPOLYLINE
  5
18400
330
18394
100
AcDbEntity
  8
SUGATA
 62
     3
370
     9
100
AcDbPolyline
 90
        6
 70
     0
 43
0.0
 10
549.6855383903894
 20
-5951.48555332499
 10
549.6855383903894
 20
-5064.685553325002
 42
-0.4142135623730951
 10
749.6855383903894
 20
-4864.685553325002
 10
2350.314431742893
 20
-4864.685553325002
 42
-0.4142135623730951
 10
2550.314431742892
 20
-5064.685553325002
 10
2550.314431742889
 20
-5951.48555332499
  0
LWPOLYLINE
  5
18401
330
18394
100
AcDbEntity
  8
SUGATA
 62
     3
370
     9
100
AcDbPolyline
 90
        6
 70
     0
 43
0.0
 10
549.6855383903894
 20
-5951.48555332499
 10
537.6898902853208
 20
-5951.48556560215
 42
0.4146385065467209
 10
534.6855383903894
 20
-5954.485562445607
 10
534.6855383903894
 20
-5964.810471986083
 42
0.4142135623457131
 10
536.6855383902002
 20
-5966.810471986082
 10
551.9229558928928
 20
-5966.810471987537
  0
LWPOLYLINE
  5
18402
330
18394
100
AcDbEntity
  8
SUGATA
 62
     3
370
     9
100
AcDbPolyline
 90
        6
 70
     0
 43
0.0
 10
2550.314431742889
 20
-5951.48555332499
 10
2562.310079850457
 20
-5951.48556560215
 42
-0.4146385065467209
 10
2565.314431745388
 20
-5954.485562445607
 10
2565.314431745388
 20
-5964.810471986083
 42
-0.4142135623457131
 10
2563.314431745578
 20
-5966.810471986082
 10
2547.999985067709
 20
-5966.810471987537
  0
LWPOLYLINE
  5
18403
330
18394
100
AcDbEntity
  8
SUGATA
 62
     3
370
     9
100
AcDbPolyline
 90
        6
 70
     0
 43
0.0
 10
551.9999850678869
 20
-5966.810471987537
 10
551.9999850678869
 20
-5966.810471987537
 42
0.4142135623730773
 10
549.9999850678868
 20
-5968.810471987538
 10
549.9999850678868
 20
-6145.000000000011
 42
0.4142135623730951
 10
749.9999850678868
 20
-6345.000000000011
 10
1324.334303139938
 20
-6345.000000000011
  0
LWPOLYLINE
  5
18404
330
18394
100
AcDbEntity
  8
SUGATA
 62
     3
370
     9
100
AcDbPolyline
 90
        6
 70
     0
 43
0.0
 10
1775.665666995828
 20
-6345.000000000011
 10
2349.99998506789
 20
-6345.000000000011
 42
0.4142135623730942
 10
2549.99998506789
 20
-6145.000000000011
 10
2549.99998506789
 20
-5968.810471987538
 42
0.4142135623730773
 10
2547.999985067895
 20
-5966.810471987537
 10
2547.999985067895
 20
-5966.810471987537
  0
LWPOLYLINE
  5
18405
330
18394
100
AcDbEntity
  8
SUGATA
 62
     3
370
     9
100
AcDbPolyline
 90
        4
 70
     0
 43
0.0
 10
2536.50114428539
 20
-5966.93003325503
 10
2536.50114428539
 20
-6144.501159217511
 42
-0.4142135623730974
 10
2349.50114428539
 20
-6331.50115921751
 10
1814.407124170975
 20
-6331.50115921751
  0
LWPOLYLINE
  5
18406
330
18394
100
AcDbEntity
  8
SUGATA
 62
     3
370
     9
100
AcDbPolyline
 90
        4
 70
     0
 43
0.0
 10
1285.592845964791
 20
-6331.50115921751
 10
750.4988258503908
 20
-6331.50115921751
 42
-0.4142135623730944
 10
563.4988258503872
 20
-6144.501159217511
 10
563.4988258503872
 20
-5966.93003325503
  0
LWPOLYLINE
  5
18407
330
18394
100
AcDbEntity
  8
SUGATA
 62
     3
370
     9
100
AcDbPolyline
 90
        6
 70
     0
 43
0.0
 10
563.1843791728897
 20
-5966.68043873239
 10
563.1843791753854
 20
-5065.184394106978
 42
-0.4142135623722829
 10
750.184379175389
 20
-4878.18439410756
 10
2349.815590960392
 20
-4878.18439410756
 42
-0.4142135623730943
 10
2536.815590960389
 20
-5065.184394107502
 10
2536.815590960392
 20
-5966.68043873239
  0
LINE
  5
18408
330
18394
100
AcDbEntity
  8
SUGATA
 62
     3
370
     9
100
AcDbLine
 10
2536.815590960392
 20
-5966.680438732506
 30
0.0
 11
2272.003601892891
 21
-5966.680438732506
 31
0.0
  0
LINE
  5
18409
330
18394
100
AcDbEntity
  8
SUGATA
 62
     3
370
     9
100
AcDbLine
 10
2536.50114428539
 20
-5966.93003325503
 30
0.0
 11
2271.927190635389
 21
-5966.93003325503
 31
0.0
  0
LINE
  5
1840A
330
18394
100
AcDbEntity
  8
SUGATA
  6
Continuous
 62
     3
370
     9
100
AcDbLine
 10
1928.634588895391
 20
-6310.000000000011
 30
0.0
 11
1865.277640476579
 21
-6310.000000000011
 31
0.0
  0
LINE
  5
1840B
330
18394
100
AcDbEntity
  8
SUGATA
  6
Continuous
 62
     3
370
     9
100
AcDbLine
 10
1234.722329659191
 20
-6310.000000000011
 30
0.0
 11
1171.365381237887
 21
-6310.000000000011
 31
0.0
  0
LINE
  5
1840C
330
18394
100
AcDbEntity
  8
SUGATA
  6
Continuous
 62
     3
370
     9
100
AcDbLine
 10
1171.365381237887
 20
-4960.000000000011
 30
0.0
 11
1234.722329659191
 21
-4960.000000000011
 31
0.0
  0
LINE
  5
1840D
330
18394
100
AcDbEntity
  8
SUGATA
  6
Continuous
 62
     3
370
     9
100
AcDbLine
 10
1865.277640476579
 20
-4960.000000000011
 30
0.0
 11
1928.634588895391
 21
-4960.000000000011
 31
0.0
  0
ARC
  5
1840E
330
18394
100
AcDbEntity
  8
SUGATA
  6
Continuous
 62
     3
370
     9
100
AcDbCircle
 10
816.0036105828876
 20
-5635.000000000011
 30
0.0
 40
1499.999999999999
100
AcDbArc
 50
352.1937237617852
 51
7.806276238214813
  0
ARC
  5
1840F
330
18394
100
AcDbEntity
  8
SUGATA
  6
Continuous
 62
     3
370
     9
100
AcDbCircle
 10
1491.409985067883
 20
-5526.340720680029
 30
0.0
 40
699.9999999999995
100
AcDbArc
 50
135.3334685260253
 51
172.1937237617852
  0
ARC
  5
18410
330
18394
100
AcDbEntity
  8
SUGATA
  6
Continuous
 62
     3
370
     9
100
AcDbCircle
 10
1491.409985067883
 20
-5743.659279320051
 30
0.0
 40
699.9999999999995
100
AcDbArc
 50
187.8062762382148
 51
224.6665314739747
  0
ARC
  5
18411
330
18394
100
AcDbEntity
  8
SUGATA
  6
Continuous
 62
     3
370
     9
100
AcDbCircle
 10
1171.365381237887
 20
-6060.000000000011
 30
0.0
 40
249.9999999999999
100
AcDbArc
 50
224.6665314739747
 51
270.0
  0
ARC
  5
18412
330
18394
100
AcDbEntity
  8
SUGATA
  6
Continuous
 62
     3
370
     9
100
AcDbCircle
 10
1171.365381237887
 20
-5210.000000000011
 30
0.0
 40
249.9999999999999
100
AcDbArc
 50
90.0
 51
135.3334685260253
  0
ARC
  5
18413
330
18394
100
AcDbEntity
  8
SUGATA
  6
Continuous
 62
     3
370
     9
100
AcDbCircle
 10
1608.589985067883
 20
-5743.659279320051
 30
0.0
 40
699.9999999999995
100
AcDbArc
 50
315.3334685260253
 51
352.1937237617852
  0
ARC
  5
18414
330
18394
100
AcDbEntity
  8
SUGATA
  6
Continuous
 62
     3
370
     9
100
AcDbCircle
 10
1928.634588895391
 20
-6060.000000000011
 30
0.0
 40
249.9999999999999
100
AcDbArc
 50
270.0
 51
315.3334685260253
  0
ARC
  5
18415
330
18394
100
AcDbEntity
  8
SUGATA
  6
Continuous
 62
     3
370
     9
100
AcDbCircle
 10
1608.589985067883
 20
-5526.340720680029
 30
0.0
 40
699.9999999999995
100
AcDbArc
 50
7.806276238214813
 51
44.66653147397468
  0
ARC
  5
18416
330
18394
100
AcDbEntity
  8
SUGATA
  6
Continuous
 62
     3
370
     9
100
AcDbCircle
 10
1928.634588895391
 20
-5210.000000000011
 30
0.0
 40
249.9999999999999
100
AcDbArc
 50
44.66653147397468
 51
90.0
  0
ARC
  5
18417
330
18394
100
AcDbEntity
  8
SUGATA
  6
Continuous
 62
     3
370
     9
100
AcDbCircle
 10
2283.996359550387
 20
-5635.000000000011
 30
0.0
 40
1499.999999999999
100
AcDbArc
 50
172.1937237617852
 51
187.8062762382148
  0
LINE
  5
18418
330
18394
100
AcDbEntity
  8
SUGATA
 62
     3
370
     9
100
AcDbLine
 10
563.1843791753854
 20
-5966.680438732506
 30
0.0
 11
827.996368242886
 21
-5966.680438732506
 31
0.0
  0
LINE
  5
18419
330
18394
100
AcDbEntity
  8
SUGATA
 62
     3
370
     9
100
AcDbLine
 10
563.4988258503872
 20
-5966.93003325503
 30
0.0
 11
828.0727795003876
 21
-5966.93003325503
 31
0.0
  0
LWPOLYLINE
  5
1841A
330
18394
100
AcDbEntity
  8
SUGATA
 62
     3
370
     9
100
AcDbPolyline
 90
        4
 70
     0
 43
0.0
 10
3984.99998506789
 20
-4800.000000000011
 10
3984.99998506789
 20
-6224.00000000001
 42
0.4142135623731728
 10
3987.999985067887
 20
-6227.00000000001
 10
4209.49998506789
 20
-6227.00000000001
  0
LWPOLYLINE
  5
1841B
330
18394
100
AcDbEntity
  8
SUGATA
 62
     2
100
AcDbPolyline
 90
        4
 70
     0
 43
0.0
 10
4088.49998506789
 20
-6485.659678105043
 10
4088.49998506789
 20
-6500.000000000011
 10
3961.499985067887
 20
-6500.000000000011
 10
3961.499985067891
 20
-6485.659678105043
  0
LWPOLYLINE
  5
1841C
330
18394
100
AcDbEntity
  8
SUGATA
 62
     2
100
AcDbPolyline
 90
        6
 70
     0
 43
0.0
 10
4088.49998506789
 20
-6485.659678105043
 10
4094.721417555389
 20
-6485.659678105043
 10
4095.093489647886
 20
-6485.636515750036
 10
4103.663155035341
 20
-6484.498592281143
 42
0.3710834407776907
 10
4106.267809067674
 20
-6481.577052624558
 10
4106.338588340389
 20
-6477.522110900038
  0
LWPOLYLINE
  5
1841D
330
18394
100
AcDbEntity
  8
SUGATA
 62
     2
100
AcDbPolyline
 90
        6
 70
     0
 43
0.0
 10
3961.499985067891
 20
-6485.659678105043
 10
3955.278552580392
 20
-6485.659678105043
 10
3954.906480487891
 20
-6485.636515749978
 10
3946.336815100436
 20
-6484.498592281143
 42
-0.3710834407776907
 10
3943.732161068107
 20
-6481.577052624558
 10
3943.661381795395
 20
-6477.52211089998
  0
LWPOLYLINE
  5
1841E
330
18394
100
AcDbEntity
  8
SUGATA
 62
     2
100
AcDbPolyline
 90
        6
 70
     0
 43
0.0
 10
4106.338588340389
 20
-6477.522110900038
 10
4142.785634925388
 20
-6477.522110900038
 10
4143.414204242886
 20
-6477.455521990032
 10
4153.904789556061
 20
-6475.102746085799
 42
0.3485263131717817
 10
4156.248158944658
 20
-6472.201642610726
 10
4156.335612670387
 20
-6462.180438390013
  0
LWPOLYLINE
  5
1841F
330
18394
100
AcDbEntity
  8
SUGATA
 62
     2
100
AcDbPolyline
 90
        6
 70
     0
 43
0.0
 10
3943.661381795388
 20
-6477.522110900038
 10
3907.214335210389
 20
-6477.522110900038
 10
3906.585765892883
 20
-6477.455521990032
 10
3896.095180579716
 20
-6475.102746085799
 42
-0.3485263131717817
 10
3893.751811191116
 20
-6472.201642610726
 10
3893.688963407178
 20
-6465.00000000001
  0
LWPOLYLINE
  5
18420
330
18394
100
AcDbEntity
  8
SUGATA
 62
     2
100
AcDbPolyline
 90
        7
 70
     0
 43
0.0
 10
4156.335612670387
 20
-6462.180438390013
 10
4199.65449792039
 20
-6462.180438390013
 10
4200.586550917891
 20
-6462.031977835007
 10
4204.739367190351
 20
-6460.656730451109
 42
0.3089645779319734
 10
4206.792144346923
 20
-6457.965837197797
 10
4206.939715392793
 20
-6455.150013889372
 10
4207.814283652889
 20
-6453.185701415012
  0
LWPOLYLINE
  5
18421
330
18394
100
AcDbEntity
  8
SUGATA
 62
     2
100
AcDbPolyline
 90
        3
 70
     0
 43
0.0
 10
4112.411948102886
 20
-6230.000000000011
 10
4206.499985067891
 20
-6230.000000000011
 42
0.4142135623731173
 10
4209.49998506789
 20
-6227.00000000001
  0
LWPOLYLINE
  5
18422
330
18394
100
AcDbEntity
  8
SUGATA
 62
     2
100
AcDbPolyline
 90
       12
 70
     0
 43
0.0
 10
4217.999985067886
 20
-6262.000000000011
 10
4217.887368446201
 20
-6255.548198084591
 42
0.3868230818182929
 10
4213.272553192269
 20
-6250.650260142469
 10
4141.106151539777
 20
-6245.085299704759
 42
-0.1789847667224692
 10
4139.215485128755
 20
-6244.215500063042
 10
4136.464451162279
 20
-6241.46446609504
 42
0.198912367449899
 10
4132.92891725539
 20
-6240.000000000011
 10
4120.44807685585
 20
-6240.000000000011
 42
-0.4091108014920641
 10
4117.44853377037
 20
-6237.052357218704
 10
4117.411186577912
 20
-6234.912737968913
 42
0.4091108014921511
 10
4112.411948102115
 20
-6230.000000000011
 10
4112.411948102115
 20
-6230.000000000011
  0
LWPOLYLINE
  5
18423
330
18394
100
AcDbEntity
  8
SUGATA
 62
     3
370
     9
100
AcDbPolyline
 90
       10
 70
     0
 43
0.0
 10
3831.999985067883
 20
-6262.000000000011
 10
3832.112601689576
 20
-6255.548198084591
 42
-0.3868230818182929
 10
3836.727416943501
 20
-6250.650260142469
 10
3908.893818595996
 20
-6245.085299704759
 42
0.1789847667224692
 10
3910.784485007018
 20
-6244.215500063042
 10
3913.535518973498
 20
-6241.46446609504
 42
-0.198912367449899
 10
3917.071052880387
 20
-6240.000000000011
 10
3929.551893279928
 20
-6240.000000000011
 42
0.4091108014920641
 10
3932.551436365407
 20
-6237.052357218704
 10
3932.587260393462
 20
-6235.00000000001
  0
LWPOLYLINE
  5
18424
330
18394
100
AcDbEntity
  8
SUGATA
 62
     2
100
AcDbPolyline
 90
        7
 70
     0
 43
0.0
 10
4217.999985067886
 20
-6262.000000000011
 10
4224.819984847886
 20
-6262.000000000011
 10
4215.288043010507
 20
-6443.706749432731
 10
4215.260827420392
 20
-6444.028683975
 10
4214.954023757887
 20
-6445.263840242532
 10
4214.345374277887
 20
-6446.383930607535
 10
4207.814283654341
 20
-6453.185701413964
  0
LWPOLYLINE
  5
18425
330
18394
100
AcDbEntity
  8
SUGATA
 62
     3
370
     9
100
AcDbPolyline
 90
        7
 70
     0
 43
0.0
 10
3831.999985067883
 20
-6262.000000000011
 10
3825.179985287883
 20
-6262.000000000011
 10
3834.711927125271
 20
-6443.706749432731
 10
3834.739142715385
 20
-6444.028683975
 10
3835.045946377883
 20
-6445.263840242532
 10
3835.654595857883
 20
-6446.383930607535
 10
3842.185686481437
 20
-6453.185701413964
  0
LWPOLYLINE
  5
18426
330
18394
100
AcDbEntity
  8
SUGATA
 62
     3
370
     9
100
AcDbPolyline
 90
        7
 70
     0
 43
0.0
 10
3893.664357465397
 20
-6462.180438389954
 10
3850.345472215398
 20
-6462.180438389954
 10
3849.413419217898
 20
-6462.031977834948
 10
3845.26060294544
 20
-6460.65673045105
 42
-0.3089645779319734
 10
3843.207825788861
 20
-6457.965837197797
 10
3843.060254742992
 20
-6455.150013889313
 10
3842.185686482903
 20
-6453.185701414954
  0
LINE
  5
18427
330
18394
100
AcDbEntity
  8
SUGATA
 62
     3
370
     9
100
AcDbLine
 10
3961.499985067887
 20
-6485.659678105043
 30
0.0
 11
4088.49998506789
 21
-6485.659678105043
 31
0.0
  0
LINE
  5
18428
330
18394
100
AcDbEntity
  8
SUGATA
 62
     3
370
     9
100
AcDbLine
 10
3943.661381795388
 20
-6477.522110900038
 30
0.0
 11
4106.338588340389
 21
-6477.522110900038
 31
0.0
  0
LINE
  5
18429
330
18394
100
AcDbEntity
  8
SUGATA
 62
     3
370
     9
100
AcDbLine
 10
3893.664357465393
 20
-6462.180438390013
 30
0.0
 11
4156.335612670387
 21
-6462.180438390013
 31
0.0
  0
LINE
  5
1842A
330
18394
100
AcDbEntity
  8
SUGATA
 62
     3
370
     9
100
AcDbLine
 10
3831.99998506789
 20
-6262.000000000011
 30
0.0
 11
4217.999985067886
 21
-6262.000000000011
 31
0.0
  0
LINE
  5
1842B
330
18394
100
AcDbEntity
  8
SUGATA
 62
     3
370
     9
100
AcDbLine
 10
4120.448076855388
 20
-6240.000000000011
 30
0.0
 11
3929.551893277891
 21
-6240.000000000011
 31
0.0
  0
LINE
  5
1842C
330
18394
100
AcDbEntity
  8
SUGATA
 62
     3
370
     9
100
AcDbLine
 10
3842.185686481324
 20
-6453.185701413848
 30
0.0
 11
4207.814283652526
 21
-6453.185701415826
 31
0.0
  0
LINE
  5
1842D
330
18394
100
AcDbEntity
  8
SUGATA
 62
     3
370
     9
100
AcDbLine
 10
3930.882576492892
 20
-6262.000000000011
 30
0.0
 11
3935.894022233162
 21
-6453.185701414371
 31
0.0
  0
LINE
  5
1842E
330
18394
100
AcDbEntity
  8
SUGATA
 62
     3
370
     9
100
AcDbLine
 10
3896.559571267888
 20
-6262.000000000011
 30
0.0
 11
3903.267682033689
 21
-6453.185701414139
 31
0.0
  0
LINE
  5
1842F
330
18394
100
AcDbEntity
  8
SUGATA
 62
     3
370
     9
100
AcDbLine
 10
3867.718796092893
 20
-6262.000000000011
 30
0.0
 11
3875.830617166372
 21
-6453.185701414023
 31
0.0
  0
LINE
  5
18430
330
18394
100
AcDbEntity
  8
SUGATA
 62
     3
370
     9
100
AcDbLine
 10
3845.620841397889
 20
-6262.000000000011
 30
0.0
 11
3854.781528374591
 21
-6453.185701413906
 31
0.0
  0
LINE
  5
18431
330
18394
100
AcDbEntity
  8
SUGATA
 62
     3
370
     9
100
AcDbLine
 10
4119.117393642886
 20
-6262.000000000011
 30
0.0
 11
4114.105947902586
 21
-6453.185701415304
 31
0.0
  0
LINE
  5
18432
330
18394
100
AcDbEntity
  8
SUGATA
 62
     3
370
     9
100
AcDbLine
 10
4153.440398867886
 20
-6262.000000000011
 30
0.0
 11
4146.732288102037
 21
-6453.185701415536
 31
0.0
  0
LINE
  5
18433
330
18394
100
AcDbEntity
  8
SUGATA
 62
     3
370
     9
100
AcDbLine
 10
4182.281174042883
 20
-6262.000000000011
 30
0.0
 11
4174.169352969336
 21
-6453.185701415653
 31
0.0
  0
LINE
  5
18434
330
18394
100
AcDbEntity
  8
SUGATA
 62
     3
370
     9
100
AcDbLine
 10
4204.379128737888
 20
-6262.000000000011
 30
0.0
 11
4195.218441761094
 21
-6453.185701415768
 31
0.0
  0
LINE
  5
18435
330
18394
100
AcDbEntity
  8
SUGATA
 62
     3
370
     9
100
AcDbLine
 10
3969.190875190394
 20
-6262.000000000011
 30
0.0
 11
3972.286790248014
 21
-6453.185701414546
 31
0.0
  0
LINE
  5
18436
330
18394
100
AcDbEntity
  8
SUGATA
 62
     3
370
     9
100
AcDbLine
 10
4009.898476947888
 20
-6262.000000000011
 30
0.0
 11
4010.944100548061
 21
-6453.185701414721
 31
0.0
  0
LINE
  5
18437
330
18394
100
AcDbEntity
  8
SUGATA
 62
     3
370
     9
100
AcDbLine
 10
4080.809094942892
 20
-6262.000000000011
 30
0.0
 11
4077.713179885257
 21
-6453.185701415129
 31
0.0
  0
LINE
  5
18438
330
18394
100
AcDbEntity
  8
SUGATA
 62
     3
370
     9
100
AcDbLine
 10
4040.10149318539
 20
-6262.000000000011
 30
0.0
 11
4039.055869587854
 21
-6453.185701414954
 31
0.0
  0
LWPOLYLINE
  5
18439
330
18394
100
AcDbEntity
  8
SUGATA
 62
     2
100
AcDbPolyline
 90
        4
 70
     0
 43
0.0
 10
-988.5000149321131
 20
-6485.659678105043
 10
-988.5000149321131
 20
-6500.000000000011
 10
-861.5000149321131
 20
-6500.000000000011
 10
-861.5000149321131
 20
-6485.659678105043
  0
LWPOLYLINE
  5
1843A
330
18394
100
AcDbEntity
  8
SUGATA
 62
     2
100
AcDbPolyline
 90
        6
 70
     0
 43
0.0
 10
-988.5000149321131
 20
-6485.659678105043
 10
-994.7214474196115
 20
-6485.659678105043
 10
-995.0935195121129
 20
-6485.636515750036
 10
-1003.663184899567
 20
-6484.498592281143
 42
-0.3710834407776907
 10
-1006.267838931897
 20
-6481.577052624558
 10
-1006.338618204616
 20
-6477.522110900038
  0
LWPOLYLINE
  5
1843B
330
18394
100
AcDbEntity
  8
SUGATA
 62
     2
100
AcDbPolyline
 90
        6
 70
     0
 43
0.0
 10
-861.5000149321131
 20
-6485.659678105043
 10
-855.2785824446109
 20
-6485.659678105043
 10
-854.906510352117
 20
-6485.636515749978
 10
-846.3368449646623
 20
-6484.498592281143
 42
0.3710834407776907
 10
-843.7321909323326
 20
-6481.577052624558
 10
-843.6614116596174
 20
-6477.52211089998
  0
LWPOLYLINE
  5
1843C
330
18394
100
AcDbEntity
  8
SUGATA
 62
     2
100
AcDbPolyline
 90
        6
 70
     0
 43
0.0
 10
-1006.338618204616
 20
-6477.522110900038
 10
-1042.785664789611
 20
-6477.522110900038
 10
-1043.414234107113
 20
-6477.455521990032
 10
-1053.904819420284
 20
-6475.102746085799
 42
-0.3485263131717817
 10
-1056.24818880888
 20
-6472.201642610726
 10
-1056.33564253461
 20
-6462.180438390013
  0
LWPOLYLINE
  5
1843D
330
18394
100
AcDbEntity
  8
SUGATA
 62
     2
100
AcDbPolyline
 90
        6
 70
     0
 43
0.0
 10
-843.6614116596102
 20
-6477.522110900038
 10
-807.2143650746111
 20
-6477.522110900038
 10
-806.5857957571061
 20
-6477.455521990032
 10
-796.0952104439384
 20
-6475.102746085799
 42
0.3485263131717817
 10
-793.7518410553421
 20
-6472.201642610726
 10
-793.6889932714002
 20
-6465.00000000001
  0
LWPOLYLINE
  5
1843E
330
18394
100
AcDbEntity
  8
SUGATA
 62
     2
100
AcDbPolyline
 90
        7
 70
     0
 43
0.0
 10
-1056.33564253461
 20
-6462.180438390013
 10
-1099.654527784616
 20
-6462.180438390013
 10
-1100.586580782117
 20
-6462.031977835007
 10
-1104.739397054574
 20
-6460.656730451109
 42
-0.3089645779319734
 10
-1106.79217421115
 20
-6457.965837197797
 10
-1106.939745257019
 20
-6455.150013889372
 10
-1107.814313517116
 20
-6453.185701415012
  0
LWPOLYLINE
  5
1843F
330
18394
100
AcDbEntity
  8
SUGATA
 62
     2
100
AcDbPolyline
 90
       12
 70
     0
 43
0.0
 10
-1118.000014932113
 20
-6262.000000000011
 10
-1117.887398310424
 20
-6255.548198084591
 42
-0.3868230818182929
 10
-1113.272583056496
 20
-6250.650260142469
 10
-1041.106181404004
 20
-6245.085299704759
 42
0.1789847667224692
 10
-1039.215514992982
 20
-6244.215500063042
 10
-1036.464481026502
 20
-6241.46446609504
 42
-0.198912367449899
 10
-1032.928947119613
 20
-6240.000000000011
 10
-1020.448106720076
 20
-6240.000000000011
 42
0.4091108014920641
 10
-1017.448563634589
 20
-6237.052357218704
 10
-1017.411216442138
 20
-6234.912737968913
 42
-0.4091108014921511
 10
-1012.411977966338
 20
-6230.000000000011
 10
-1012.411977966338
 20
-6230.000000000011
  0
LWPOLYLINE
  5
18440
330
18394
100
AcDbEntity
  8
SUGATA
 62
     3
370
     9
100
AcDbPolyline
 90
       10
 70
     0
 43
0.0
 10
-732.0000149321058
 20
-6262.000000000011
 10
-732.1126315537985
 20
-6255.548198084591
 42
0.3868230818182929
 10
-736.727446807723
 20
-6250.650260142469
 10
-808.8938484602222
 20
-6245.085299704759
 42
-0.1789847667224692
 10
-810.784514871244
 20
-6244.215500063042
 10
-813.5355488377244
 20
-6241.46446609504
 42
0.198912367449899
 10
-817.0710827446091
 20
-6240.000000000011
 10
-829.5519231441502
 20
-6240.000000000011
 42
-0.4091108014920641
 10
-832.5514662296299
 20
-6237.052357218704
 10
-832.5872902576847
 20
-6235.00000000001
  0
LWPOLYLINE
  5
18441
330
18394
100
AcDbEntity
  8
SUGATA
 62
     2
100
AcDbPolyline
 90
        7
 70
     0
 43
0.0
 10
-1118.000014932113
 20
-6262.000000000011
 10
-1124.820014712109
 20
-6262.000000000011
 10
-1115.288072874729
 20
-6443.706749432731
 10
-1115.260857284614
 20
-6444.028683975
 10
-1114.95405362211
 20
-6445.263840242532
 10
-1114.345404142113
 20
-6446.383930607535
 10
-1107.81431351856
 20
-6453.185701413964
  0
LWPOLYLINE
  5
18442
330
18394
100
AcDbEntity
  8
SUGATA
 62
     3
370
     9
100
AcDbPolyline
 90
        7
 70
     0
 43
0.0
 10
-732.0000149321058
 20
-6262.000000000011
 10
-725.1800151521092
 20
-6262.000000000011
 10
-734.711956989493
 20
-6443.706749432731
 10
-734.7391725796078
 20
-6444.028683975
 10
-735.0459762421087
 20
-6445.263840242532
 10
-735.6546257221053
 20
-6446.383930607535
 10
-742.1857163456588
 20
-6453.185701413964
  0
LWPOLYLINE
  5
18443
330
18394
100
AcDbEntity
  8
SUGATA
 62
     3
370
     9
100
AcDbPolyline
 90
        7
 70
     0
 43
0.0
 10
-793.6643873296234
 20
-6462.180438389954
 10
-750.3455020796173
 20
-6462.180438389954
 10
-749.4134490821234
 20
-6462.031977834948
 10
-745.260632809659
 20
-6460.65673045105
 42
0.3089645779319734
 10
-743.2078556530869
 20
-6457.965837197797
 10
-743.0602846072178
 20
-6455.150013889313
 10
-742.1857163471213
 20
-6453.185701414954
  0
LINE
  5
18444
330
18394
100
AcDbEntity
  8
SUGATA
 62
     3
370
     9
100
AcDbLine
 10
-861.5000149321131
 20
-6485.659678105043
 30
0.0
 11
-988.5000149321131
 21
-6485.659678105043
 31
0.0
  0
LINE
  5
18445
330
18394
100
AcDbEntity
  8
SUGATA
 62
     3
370
     9
100
AcDbLine
 10
-843.6614116596102
 20
-6477.522110900038
 30
0.0
 11
-1006.338618204616
 21
-6477.522110900038
 31
0.0
  0
LINE
  5
18446
330
18394
100
AcDbEntity
  8
SUGATA
 62
     3
370
     9
100
AcDbLine
 10
-793.6643873296125
 20
-6462.180438390013
 30
0.0
 11
-1056.33564253461
 21
-6462.180438390013
 31
0.0
  0
LINE
  5
18447
330
18394
100
AcDbEntity
  8
SUGATA
 62
     3
370
     9
100
AcDbLine
 10
-732.0000149321131
 20
-6262.000000000011
 30
0.0
 11
-1118.000014932113
 21
-6262.000000000011
 31
0.0
  0
LINE
  5
18448
330
18394
100
AcDbEntity
  8
SUGATA
 62
     3
370
     9
100
AcDbLine
 10
-1020.44810671961
 20
-6240.000000000011
 30
0.0
 11
-829.5519231421131
 21
-6240.000000000011
 31
0.0
  0
LINE
  5
18449
330
18394
100
AcDbEntity
  8
SUGATA
 62
     3
370
     9
100
AcDbLine
 10
-742.1857163455424
 20
-6453.185701413848
 30
0.0
 11
-1107.814313516752
 21
-6453.185701415826
 31
0.0
  0
LINE
  5
1844A
330
18394
100
AcDbEntity
  8
SUGATA
 62
     3
370
     9
100
AcDbLine
 10
-830.8826063571141
 20
-6262.000000000011
 30
0.0
 11
-835.8940520973883
 21
-6453.185701414371
 31
0.0
  0
LINE
  5
1844B
330
18394
100
AcDbEntity
  8
SUGATA
 62
     3
370
     9
100
AcDbLine
 10
-796.559601132114
 20
-6262.000000000011
 30
0.0
 11
-803.2677118979155
 21
-6453.185701414139
 31
0.0
  0
LINE
  5
1844C
330
18394
100
AcDbEntity
  8
SUGATA
 62
     3
370
     9
100
AcDbLine
 10
-767.7188259571121
 20
-6262.000000000011
 30
0.0
 11
-775.8306470305942
 21
-6453.185701414023
 31
0.0
  0
LINE
  5
1844D
330
18394
100
AcDbEntity
  8
SUGATA
 62
     3
370
     9
100
AcDbLine
 10
-745.6208712621155
 20
-6262.000000000011
 30
0.0
 11
-754.7815582388103
 21
-6453.185701413906
 31
0.0
  0
LINE
  5
1844E
330
18394
100
AcDbEntity
  8
SUGATA
 62
     3
370
     9
100
AcDbLine
 10
-1019.117423507108
 20
-6262.000000000011
 30
0.0
 11
-1014.105977766809
 21
-6453.185701415304
 31
0.0
  0
LINE
  5
1844F
330
18394
100
AcDbEntity
  8
SUGATA
 62
     3
370
     9
100
AcDbLine
 10
-1053.440428732108
 20
-6262.000000000011
 30
0.0
 11
-1046.732317966256
 21
-6453.185701415536
 31
0.0
  0
LINE
  5
18450
330
18394
100
AcDbEntity
  8
SUGATA
 62
     3
370
     9
100
AcDbLine
 10
-1082.28120390711
 20
-6262.000000000011
 30
0.0
 11
-1074.169382833555
 21
-6453.185701415653
 31
0.0
  0
LINE
  5
18451
330
18394
100
AcDbEntity
  8
SUGATA
 62
     3
370
     9
100
AcDbLine
 10
-1104.37915860211
 20
-6262.000000000011
 30
0.0
 11
-1095.218471625318
 21
-6453.185701415768
 31
0.0
  0
LINE
  5
18452
330
18394
100
AcDbEntity
  8
SUGATA
 62
     3
370
     9
100
AcDbLine
 10
-869.1909050546165
 20
-6262.000000000011
 30
0.0
 11
-872.2868201122365
 21
-6453.185701414546
 31
0.0
  0
LINE
  5
18453
330
18394
100
AcDbEntity
  8
SUGATA
 62
     3
370
     9
100
AcDbLine
 10
-909.8985068121109
 20
-6262.000000000011
 30
0.0
 11
-910.944130412281
 21
-6453.185701414721
 31
0.0
  0
LINE
  5
18454
330
18394
100
AcDbEntity
  8
SUGATA
 62
     3
370
     9
100
AcDbLine
 10
-980.8091248071141
 20
-6262.000000000011
 30
0.0
 11
-977.7132097494831
 21
-6453.185701415129
 31
0.0
  0
LINE
  5
18455
330
18394
100
AcDbEntity
  8
SUGATA
 62
     3
370
     9
100
AcDbLine
 10
-940.1015230496122
 20
-6262.000000000011
 30
0.0
 11
-939.0558994520761
 21
-6453.185701414954
 31
0.0
  0
LINE
  5
18456
330
18394
100
AcDbEntity
  8
SUGATA
 62
     3
370
     9
100
AcDbLine
 10
-793.688993271171
 20
-6465.00000000001
 30
0.0
 11
-793.6643873296088
 21
-6462.180438390013
 31
0.0
  0
LINE
  5
18457
330
18394
100
AcDbEntity
  8
SUGATA
 62
     2
100
AcDbLine
 10
-793.6889932721096
 20
-6465.00000000001
 30
0.0
 11
-536.4767312021067
 21
-6465.00000000001
 31
0.0
  0
LINE
  5
18458
330
18394
100
AcDbEntity
  8
SUGATA
 62
     2
100
AcDbLine
 10
-277.9165460879049
 20
-6465.000000001407
 30
0.0
 11
-69.0083580986684
 21
-6465.000000001815
 31
0.0
  0
LINE
  5
18459
330
18394
100
AcDbEntity
  8
SUGATA
 62
     2
100
AcDbLine
 10
31.0083273489181
 20
-6465.00000000001
 30
0.0
 11
222.4916418998546
 21
-6465.00000000001
 31
0.0
  0
LINE
  5
1845A
330
18394
100
AcDbEntity
  8
SUGATA
 62
     2
100
AcDbLine
 10
312.4999857882358
 20
-6465.00000000001
 30
0.0
 11
440.3122942278969
 21
-6465.00000000001
 31
0.0
  0
LINE
  5
1845B
330
18394
100
AcDbEntity
  8
SUGATA
 62
     2
100
AcDbLine
 10
659.6876759078805
 20
-6465.00000000001
 30
0.0
 11
1058.499985067887
 21
-6465.00000000001
 31
0.0
  0
LWPOLYLINE
  5
1845C
330
18394
100
AcDbEntity
  8
SUGATA
 62
     2
100
AcDbPolyline
 90
        3
 70
     0
 43
0.0
 10
2041.499985067891
 20
-6465.00000000001
 10
2041.347482275607
 20
-6466.743114873486
 42
-0.2640156673473643
 10
2030.14138620242
 20
-6483.000000000011
 42
-0.2640156673473643
  0
LWPOLYLINE
  5
1845D
330
18394
100
AcDbEntity
  8
SUGATA
 62
     2
100
AcDbPolyline
 90
        3
 70
     0
 43
0.0
 10
1069.858583930199
 20
-6483.000000000011
 42
-0.2640156678294082
 10
1058.652487853858
 20
-6466.743114837573
 10
1058.499985067887
 20
-6465.00000000001
  0
LINE
  5
1845E
330
18394
100
AcDbEntity
  8
SUGATA
 62
     2
100
AcDbLine
 10
2041.499985067891
 20
-6465.00000000001
 30
0.0
 11
2401.999985067891
 21
-6465.00000000001
 31
0.0
  0
LWPOLYLINE
  5
1845F
330
18394
100
AcDbEntity
  8
SUGATA
 62
     2
100
AcDbPolyline
 90
        6
 70
     0
 43
0.0
 10
2401.999985067891
 20
-6465.00000000001
 10
2401.999985067891
 20
-6469.000000000011
 42
0.4142135623731728
 10
2404.999985067887
 20
-6472.000000000011
 10
2438.999985067887
 20
-6472.000000000011
 42
0.4142135623730618
 10
2441.999985067891
 20
-6469.000000000011
 10
2441.999985067891
 20
-6466.698199707501
  0
LWPOLYLINE
  5
18460
330
18394
100
AcDbEntity
  8
SUGATA
 62
     2
100
AcDbPolyline
 90
        4
 70
     0
 43
0.0
 10
2440.312294227897
 20
-6465.00000000001
 42
0.213421765283394
 10
2462.672974002893
 20
-6475.000000000012
 10
2637.326996132892
 20
-6475.000000000012
 42
0.213421765283394
 10
2659.687675907888
 20
-6465.00000000001
  0
LWPOLYLINE
  5
18461
330
18394
100
AcDbEntity
  8
SUGATA
 62
     2
100
AcDbPolyline
 90
        6
 70
     0
 43
0.0
 10
2758.502191547348
 20
-6465.00000000001
 10
2752.955652904864
 20
-6470.538194357719
 42
-0.1987167354810713
 10
2749.422781453385
 20
-6472.000000000767
 10
2670.577189330863
 20
-6472.000000000011
 42
-0.1987167147393096
 10
2667.044318161814
 20
-6470.538194638862
 10
2661.49777835259
 20
-6465.00000000001
  0
LWPOLYLINE
  5
18462
330
18394
100
AcDbEntity
  8
SUGATA
 62
     2
100
AcDbPolyline
 90
        6
 70
     0
 43
0.0
 10
2941.999985067891
 20
-6465.00000000001
 10
2941.999985067891
 20
-6469.000000000011
 42
0.4142135623731728
 10
2944.999985067887
 20
-6472.000000000011
 10
2978.999985067887
 20
-6472.000000000011
 42
0.4142135623731173
 10
2981.99998506789
 20
-6469.000000000011
 10
2981.99998506789
 20
-6465.00000000001
  0
LINE
  5
18463
330
18394
100
AcDbEntity
  8
SUGATA
 62
     2
100
AcDbLine
 10
2981.99998506789
 20
-6465.00000000001
 30
0.0
 11
3031.999985067891
 21
-6465.00000000001
 31
0.0
  0
LWPOLYLINE
  5
18464
330
18394
100
AcDbEntity
  8
SUGATA
 62
     2
100
AcDbPolyline
 90
        6
 70
     0
 43
0.0
 10
3031.999985067891
 20
-6465.00000000001
 10
3031.999985067891
 20
-6469.000000000011
 42
0.4142135623731173
 10
3034.999985067891
 20
-6472.000000000011
 10
3035.999985067891
 20
-6472.000000000011
 42
0.4142135623731173
 10
3038.999985067891
 20
-6469.000000000011
 10
3038.999985067891
 20
-6465.00000000001
  0
LINE
  5
18465
330
18394
100
AcDbEntity
  8
SUGATA
 62
     2
100
AcDbLine
 10
3038.999985067891
 20
-6465.00000000001
 30
0.0
 11
3463.523268797894
 21
-6465.00000000001
 31
0.0
  0
LINE
  5
18466
330
18394
100
AcDbEntity
  8
SUGATA
 62
     2
100
AcDbLine
 10
3636.476701335388
 20
-6465.00000000001
 30
0.0
 11
3893.688963405391
 21
-6465.00000000001
 31
0.0
  0
LINE
  5
18467
330
18394
100
AcDbEntity
  8
SUGATA
 62
     3
370
     9
100
AcDbLine
 10
3893.688963405391
 20
-6465.00000000001
 30
0.0
 11
3893.66435746539
 21
-6462.180438389954
 31
0.0
  0
LWPOLYLINE
  5
18468
330
18394
100
AcDbEntity
  8
SUGATA
 62
     2
100
AcDbPolyline
 90
        4
 70
     0
 43
0.0
 10
3463.523268797894
 20
-6465.00000000001
 42
0.1354591156301587
 10
3549.999985068651
 20
-6489.999999999952
 10
3549.999985068651
 20
-6489.999999999952
 42
0.1354591156384959
 10
3636.476701335388
 20
-6465.00000000001
 42
0.1449747691035797
  0
LINE
  5
18469
330
18394
100
AcDbEntity
  8
SUGATA
 62
     3
370
     9
100
AcDbLine
 10
3636.476701335388
 20
-6465.00000000001
 30
0.0
 11
3463.523268797894
 21
-6465.00000000001
 31
0.0
  0
LINE
  5
1846A
330
18394
100
AcDbEntity
  8
SUGATA
 62
     3
370
     9
100
AcDbLine
 10
3038.999985067891
 20
-6465.00000000001
 30
0.0
 11
3031.999985067891
 21
-6465.00000000001
 31
0.0
  0
LINE
  5
1846B
330
18394
100
AcDbEntity
  8
SUGATA
 62
     3
370
     9
100
AcDbLine
 10
2981.99998506789
 20
-6465.00000000001
 30
0.0
 11
2941.999985067891
 21
-6465.00000000001
 31
0.0
  0
LINE
  5
1846C
330
18394
100
AcDbEntity
  8
SUGATA
 62
     3
370
     9
100
AcDbLine
 10
2758.502191547348
 20
-6465.00000000001
 30
0.0
 11
2661.497778352579
 21
-6465.00000000001
 31
0.0
  0
LINE
  5
1846D
330
18394
100
AcDbEntity
  8
SUGATA
 62
     3
370
     9
100
AcDbLine
 10
2659.687675907884
 20
-6465.00000000001
 30
0.0
 11
2401.999985067891
 21
-6465.00000000001
 31
0.0
  0
LINE
  5
1846E
330
18394
100
AcDbEntity
  8
SUGATA
 62
     3
370
     9
100
AcDbLine
 10
2041.499985067891
 20
-6465.00000000001
 30
0.0
 11
1058.499985067887
 21
-6465.00000000001
 31
0.0
  0
LWPOLYLINE
  5
1846F
330
18394
100
AcDbEntity
  8
SUGATA
 62
     3
370
     9
100
AcDbPolyline
 90
        6
 70
     0
 43
0.0
 10
1864.99998506558
 20
-6465.00000000001
 10
1859.464451161857
 20
-6470.535533905447
 42
-0.1989123674188947
 10
1855.928917255391
 20
-6472.000000000011
 10
1784.071052877254
 20
-6472.000000000011
 42
-0.1989123674391873
 10
1780.535518970515
 20
-6470.535533905156
 10
1774.999985067923
 20
-6465.00000000001
  0
LWPOLYLINE
  5
18470
330
18394
100
AcDbEntity
  8
SUGATA
 62
     3
370
     9
100
AcDbPolyline
 90
        6
 70
     0
 43
0.0
 10
1214.999985065897
 20
-6465.00000000001
 10
1209.46445116217
 20
-6470.535533905447
 42
-0.1989123674188947
 10
1205.928917255703
 20
-6472.000000000011
 10
1134.071052877571
 20
-6472.000000000011
 42
-0.1989123674391873
 10
1130.535518970828
 20
-6470.535533905156
 10
1124.999985068243
 20
-6465.00000000001
  0
LWPOLYLINE
  5
18471
330
18394
100
AcDbEntity
  8
SUGATA
 62
     2
100
AcDbPolyline
 90
        4
 70
     0
 43
0.0
 10
440.3122942278932
 20
-6465.00000000001
 42
0.2134217652833826
 10
462.6729740028895
 20
-6475.000000000012
 10
637.3269961328879
 20
-6475.000000000012
 42
0.213421765283381
 10
659.6876759078877
 20
-6465.00000000001
 42
0.213421765283381
  0
LWPOLYLINE
  5
18472
330
18394
100
AcDbEntity
  8
SUGATA
 62
     2
100
AcDbPolyline
 90
        6
 70
     0
 43
0.0
 10
312.4999857886432
 20
-6464.999999999604
 10
306.9617887067761
 20
-6470.538194357311
 42
-0.1987167354810713
 10
303.428917255289
 20
-6472.000000000361
 10
231.5710528777927
 20
-6471.999999999662
 42
-0.1987167147393096
 10
228.03818170874
 20
-6470.538194638571
 10
222.4916418998619
 20
-6465.00000000001
  0
LWPOLYLINE
  5
18473
330
18394
100
AcDbEntity
  8
SUGATA
 62
     2
100
AcDbPolyline
 90
        6
 70
     0
 43
0.0
 10
31.0083273489181
 20
-6465.00000000001
 10
25.46178870681979
 20
-6470.53819435737
 42
-0.1987167354810713
 10
21.92891725533991
 20
-6472.000000000419
 10
-59.92894712215639
 20
-6472.000000000011
 42
-0.1987167147393096
 10
-63.46181829121269
 20
-6470.538194638862
 10
-69.0083580986684
 20
-6465.000000001815
  0
LWPOLYLINE
  5
18474
330
18394
100
AcDbEntity
  8
SUGATA
 62
     2
100
AcDbPolyline
 90
        4
 70
     0
 43
0.0
 10
-329.2291792946126
 20
-6465.00000000001
 42
0.4142135649961949
 10
-328.2291792856558
 20
-6466.000000000011
 10
-278.9169655023288
 20
-6465.999999558388
 42
0.4142135597500453
 10
-277.9169655112855
 20
-6464.99999955839
  0
LWPOLYLINE
  5
18475
330
18394
100
AcDbEntity
  8
SUGATA
 62
     2
100
AcDbPolyline
 90
        3
 70
     0
 43
0.0
 10
-351.5086590023675
 20
-6466.000000168754
 10
-332.6666792856558
 20
-6466.000000000011
 42
0.4142135597500453
 10
-331.6666792946089
 20
-6465.00000000001
  0
ARC
  5
18476
330
18394
100
AcDbEntity
  8
SUGATA
 62
     2
100
AcDbCircle
 10
-395.0000149321131
 20
-6394.000000000011
 30
0.0
 40
84.99999999999843
100
AcDbArc
 50
272.2798028120892
 51
293.960454977058
  0
ARC
  5
18477
330
18394
100
AcDbEntity
  8
SUGATA
 62
     3
370
     9
100
AcDbCircle
 10
-394.9996342608793
 20
-6394.001793995801
 30
0.0
 40
84.99820600805295
100
AcDbArc
 50
246.0344339095258
 51
272.2795688148581
  0
LWPOLYLINE
  5
18478
330
18394
100
AcDbEntity
  8
SUGATA
 62
     2
100
AcDbPolyline
 90
        3
 70
     0
 43
0.0
 10
-360.4752387932058
 20
-6471.672194791096
 10
-351.5086590023675
 20
-6466.000000168754
 10
-350.1944896496134
 20
-6465.00000000001
  0
LWPOLYLINE
  5
18479
330
18394
100
AcDbEntity
  8
SUGATA
 62
     3
370
     9
100
AcDbPolyline
 90
        4
 70
     0
 43
0.0
 10
-429.5248466721932
 20
-6471.672282165626
 10
-435.3135097346093
 20
-6468.166945296234
 10
-438.7650875396102
 20
-6465.78972963501
 10
-439.8038393721144
 20
-6465.00000000001
  0
LINE
  5
1847A
330
18394
100
AcDbEntity
  8
SUGATA
 62
     2
100
AcDbLine
 10
-440.0000149335173
 20
-6490.00000000001
 30
0.0
 11
-460.0000149322113
 21
-6489.999999999952
 31
0.0
  0
ARC
  5
1847B
330
18394
100
AcDbEntity
  8
SUGATA
 62
     2
100
AcDbCircle
 10
-447.6107629918005
 20
-6322.626665153144
 30
0.0
 40
167.8312449497617
100
AcDbArc
 50
238.0285939762778
 51
265.7665919790099
  0
ARC
  5
1847C
330
18394
100
AcDbEntity
  8
SUGATA
 62
     2
100
AcDbCircle
 10
-450.0000149321058
 20
-6335.000000000011
 30
0.0
 40
155.322245669997
100
AcDbArc
 50
273.6913859859547
 51
292.1656735436288
  0
LINE
  5
1847D
330
18394
100
AcDbEntity
  8
SUGATA
 62
     3
370
     9
100
AcDbLine
 10
-536.4767312021067
 20
-6465.00000000001
 30
0.0
 11
-277.9169655112855
 21
-6465.00000000001
 31
0.0
  0
LINE
  5
1847E
330
18394
100
AcDbEntity
  8
SUGATA
 62
     3
370
     9
100
AcDbLine
 10
222.4916418998546
 20
-6465.00000000001
 30
0.0
 11
312.4999857886432
 21
-6464.999999999604
 31
0.0
  0
LINE
  5
1847F
330
18394
100
AcDbEntity
  8
SUGATA
 62
     3
370
     9
100
AcDbLine
 10
-69.0083580986684
 20
-6465.000000001815
 30
0.0
 11
31.0083273489181
 21
-6464.999999999662
 31
0.0
  0
LINE
  5
18480
330
18394
100
AcDbEntity
  8
SUGATA
 62
     3
370
     9
100
AcDbLine
 10
440.3122942278969
 20
-6465.00000000001
 30
0.0
 11
659.6876759078805
 21
-6465.00000000001
 31
0.0
  0
LINE
  5
18481
330
18394
100
AcDbEntity
  8
SUGATA
 62
     3
370
     9
100
AcDbLine
 10
-730.8453069396091
 20
-6370.000000000011
 30
0.0
 11
1428.344734461912
 21
-6370.000000000011
 31
0.0
  0
LINE
  5
18482
330
18394
100
AcDbEntity
  8
SUGATA
 62
     3
370
     9
100
AcDbLine
 10
1671.655235673854
 20
-6370.000000000011
 30
0.0
 11
3830.845277045387
 21
-6370.000000000011
 31
0.0
  0
ARC
  5
18483
330
18394
100
AcDbEntity
  8
SUGATA
 62
     3
370
     9
100
AcDbCircle
 10
2349.99998506808
 20
-6145.000000000651
 30
0.0
 40
224.9999999993855
100
AcDbArc
 50
270.0
 51
336.0909276091907
  0
LWPOLYLINE
  5
18484
330
18394
100
AcDbEntity
  8
SUGATA
 62
     3
370
     9
100
AcDbPolyline
 90
        5
 70
     0
 43
0.0
 10
2555.692688357893
 20
-6236.18942818751
 10
2557.410551222889
 20
-6235.00000000001
 10
3986.999983717895
 20
-6235.00000000001
 42
0.4142134305714606
 10
3988.999983717891
 20
-6233.000000900018
 10
3988.99998506789
 20
-6230.000000000011
  0
LWPOLYLINE
  5
18485
330
18394
100
AcDbEntity
  8
SUGATA
 62
     3
370
     9
100
AcDbPolyline
 90
        6
 70
     0
 43
0.0
 10
3986.999983717891
 20
-6235.00000000001
 10
4070.177093075374
 20
-6235.00000000001
 42
0.398945123344572
 10
4072.174346932981
 20
-6233.1047713142
 10
4072.188087084531
 20
-6232.842843028727
 42
-0.3989451233445966
 10
4075.18396787094
 20
-6230.000000000011
 10
4112.411948102115
 20
-6230.000000000011
  0
LWPOLYLINE
  5
18486
330
18394
100
AcDbEntity
  8
SUGATA
 62
     3
370
     9
100
AcDbPolyline
 90
        3
 70
     0
 43
0.0
 10
3985.99998506789
 20
-6227.00000000001
 42
0.4142135552703877
 10
3988.999984995138
 20
-6230.000000000011
 10
4075.183951820388
 20
-6230.000002090015
  0
ARC
  5
18487
330
18394
100
AcDbEntity
  8
SUGATA
 62
     3
370
     9
100
AcDbCircle
 10
3961.999985067891
 20
-4928.000000000011
 30
0.0
 40
23.00000000000466
100
AcDbArc
 50
0.0
 51
90.0
  0
LWPOLYLINE
  5
18488
330
18394
100
AcDbEntity
  8
SUGATA
 62
     3
370
     9
100
AcDbPolyline
 90
        5
 70
     0
 43
0.0
 10
2562.978857257895
 20
-6227.00000000001
 10
2576.999985067891
 20
-6227.00000000001
 42
0.4142135623731173
 10
2579.999985067891
 20
-6224.00000000001
 10
2579.999985067891
 20
-4910.00000000001
 42
0.4142135623730951
 10
2576.999985067891
 20
-4907.00000000001
 42
-0.4142135623730951
  0
ARC
  5
18489
330
18394
100
AcDbEntity
  8
SUGATA
 62
     3
370
     9
100
AcDbCircle
 10
2562.978857257895
 20
-6237.000000000011
 30
0.0
 40
10.00000000000113
100
AcDbArc
 50
90.0
 51
156.6372136797867
  0
ARC
  5
1848A
330
18394
100
AcDbEntity
  8
SUGATA
 62
     3
370
     9
100
AcDbCircle
 10
2349.99998506789
 20
-6145.000000000011
 30
0.0
 40
221.9999999999982
100
AcDbArc
 50
270.0
 51
336.6372136797867
  0
LINE
  5
1848B
330
18394
100
AcDbEntity
  8
SUGATA
 62
     3
370
     9
100
AcDbLine
 10
2349.99998506789
 20
-6367.000000000011
 30
0.0
 11
1688.567658065593
 21
-6367.000000000011
 31
0.0
  0
LINE
  5
1848C
330
18394
100
AcDbEntity
  8
SUGATA
 62
     3
370
     9
100
AcDbLine
 10
1411.432312070174
 20
-6367.000000000011
 30
0.0
 11
749.9999850678868
 21
-6367.000000000011
 31
0.0
  0
ARC
  5
1848D
330
18394
100
AcDbEntity
  8
SUGATA
 62
     3
370
     9
100
AcDbCircle
 10
537.0211128778865
 20
-6237.000000000011
 30
0.0
 40
10.00000000000113
100
AcDbArc
 50
23.36278632021332
 51
90.0
  0
ARC
  5
1848E
330
18394
100
AcDbEntity
  8
SUGATA
 62
     3
370
     9
100
AcDbCircle
 10
749.9999850678833
 20
-6145.000000000011
 30
0.0
 40
221.9999999999982
100
AcDbArc
 50
203.3627863202133
 51
270.0
  0
LWPOLYLINE
  5
1848F
330
18394
100
AcDbEntity
  8
SUGATA
 62
     3
370
     9
100
AcDbPolyline
 90
        6
 70
     0
 43
0.0
 10
537.0211128753908
 20
-6227.00000000001
 10
504.9999850678869
 20
-6227.00000000001
 42
-0.4142135623730773
 10
502.9999850678905
 20
-6225.000000000012
 10
502.9999850678905
 20
-4909.000000000011
 42
-0.4142135623730773
 10
504.9999850678869
 20
-4907.00000000001
 10
504.9999850678869
 20
-4907.00000000001
  0
LINE
  5
18490
330
18394
100
AcDbEntity
  8
SUGATA
 62
     3
370
     9
100
AcDbLine
 10
-1012.411977966338
 20
-6230.000000000011
 30
0.0
 11
539.6669158653858
 21
-6230.000000000011
 31
0.0
  0
ARC
  5
18491
330
18394
100
AcDbEntity
  8
SUGATA
 62
     3
370
     9
100
AcDbCircle
 10
539.6669158653858
 20
-6233.000000000011
 30
0.0
 40
3.000000000002387
100
AcDbArc
 50
22.70365627242385
 51
90.0
  0
ARC
  5
18492
330
18394
100
AcDbEntity
  8
SUGATA
 62
     3
370
     9
100
AcDbCircle
 10
749.9999850681742
 20
-6144.999999999079
 30
0.0
 40
225.0000000009401
100
AcDbArc
 50
202.7036562663269
 51
270.0
  0
LWPOLYLINE
  5
18493
330
18394
100
AcDbEntity
  8
SUGATA
 62
     1
370
     9
100
AcDbPolyline
 90
       10
 70
     0
 43
0.0
 10
-852.0000149321095
 20
-5240.000000000011
 10
-736.000014932113
 20
-5240.000000000011
 42
0.4142135623730958
 10
-714.0000149321131
 20
-5218.000000000011
 10
-714.0000149321131
 20
-4982.00000000001
 42
0.4142135623730919
 10
-736.000014932113
 20
-4960.000000000011
 10
-852.0000149321095
 20
-4960.000000000011
 42
0.4142135623730919
 10
-874.0000149321131
 20
-4982.00000000001
 10
-874.0000149321131
 20
-5218.000000000011
 42
0.4142135623730882
 10
-852.0000149321095
 20
-5240.000000000011
 10
-852.0000149321095
 20
-5240.000000000011
  0
LWPOLYLINE
  5
18494
330
18394
100
AcDbEntity
  8
SUGATA
 62
     1
370
     9
100
AcDbPolyline
 90
        8
 70
     1
 43
0.0
 10
-852.0000149321095
 20
-5238.500000000011
 10
-736.000014932113
 20
-5238.500000000011
 42
0.4142135623730975
 10
-715.5000149321095
 20
-5218.000000000011
 10
-715.5000149321095
 20
-4982.00000000001
 42
0.4142135623730975
 10
-736.000014932113
 20
-4961.500000000011
 10
-852.0000149321095
 20
-4961.500000000011
 42
0.4142135623730975
 10
-872.5000149321131
 20
-4982.00000000001
 10
-872.5000149321131
 20
-5218.000000000011
 42
0.4142135623730853
  0
LWPOLYLINE
  5
18495
330
18394
100
AcDbEntity
  8
SUGATA
 62
     1
370
     9
100
AcDbPolyline
 90
        6
 70
     0
 43
0.0
 10
-866.0000149321131
 20
-6227.00000000001
 10
-866.0000149321131
 20
-5274.000000000011
 42
-0.4142135623730618
 10
-864.0000149321132
 20
-5272.000000000011
 10
-831.0000149321131
 20
-5272.000000000011
 42
-0.4142135623730618
 10
-829.000014932113
 20
-5274.000000000011
 10
-829.000014932113
 20
-6227.00000000001
  0
LWPOLYLINE
  5
18496
330
18394
100
AcDbEntity
  8
SUGATA
 62
     1
370
     9
100
AcDbPolyline
 90
        6
 70
     0
 43
0.0
 10
-809.0000149321131
 20
-6227.00000000001
 10
-809.0000149321131
 20
-5274.000000000011
 42
-0.4142135623730618
 10
-807.0000149321094
 20
-5272.000000000011
 10
-774.0000149321131
 20
-5272.000000000011
 42
-0.4142135623730618
 10
-772.0000149321094
 20
-5274.000000000011
 10
-772.0000149321131
 20
-6227.00000000001
  0
LWPOLYLINE
  5
18497
330
18394
100
AcDbEntity
  8
SUGATA
 62
     1
370
     9
100
AcDbPolyline
 90
        6
 70
     0
 43
0.0
 10
-752.0000149321131
 20
-6227.00000000001
 10
-752.0000149321131
 20
-5274.000000000011
 42
-0.4142135623730618
 10
-750.0000149321131
 20
-5272.000000000011
 10
-717.0000149321131
 20
-5272.000000000011
 42
-0.4142135623730618
 10
-715.000014932113
 20
-5274.000000000011
 10
-715.000014932113
 20
-6227.00000000001
  0
LINE
  5
18498
330
18394
100
AcDbEntity
  8
SUGATA
 62
     3
370
     9
100
AcDbLine
 10
-1109.500014932109
 20
-6227.00000000001
 30
0.0
 11
504.9999850678869
 21
-6227.00000000001
 31
0.0
  0
LINE
  5
18499
330
18394
100
AcDbEntity
  8
SUGATA
 62
     1
370
     9
100
AcDbLine
 10
-694.000014932113
 20
-4907.00000000001
 30
0.0
 11
-694.000014932113
 21
-6227.00000000001
 31
0.0
  0
LINE
  5
1849A
330
18394
100
AcDbEntity
  8
SUGATA
 62
     1
370
     9
100
AcDbLine
 10
-657.0000149321095
 20
-6227.00000000001
 30
0.0
 11
-657.0000149321131
 21
-4907.00000000001
 31
0.0
  0
LINE
  5
1849B
330
18394
100
AcDbEntity
  8
SUGATA
 62
     1
370
     9
100
AcDbLine
 10
-636.000014932113
 20
-6227.00000000001
 30
0.0
 11
-636.000014932113
 21
-4907.00000000001
 31
0.0
  0
LINE
  5
1849C
330
18394
100
AcDbEntity
  8
SUGATA
 62
     1
370
     9
100
AcDbLine
 10
-599.0000149321095
 20
-6227.00000000001
 30
0.0
 11
-599.0000149321131
 21
-4907.00000000001
 31
0.0
  0
LINE
  5
1849D
330
18394
100
AcDbEntity
  8
SUGATA
 62
     1
370
     9
100
AcDbLine
 10
-578.0000149321095
 20
-6227.00000000001
 30
0.0
 11
-578.0000149321095
 21
-4907.00000000001
 31
0.0
  0
LINE
  5
1849E
330
18394
100
AcDbEntity
  8
SUGATA
 62
     1
370
     9
100
AcDbLine
 10
-483.0000149321095
 20
-6227.00000000001
 30
0.0
 11
-483.0000149321095
 21
-4907.00000000001
 31
0.0
  0
LINE
  5
1849F
330
18394
100
AcDbEntity
  8
SUGATA
 62
     1
370
     9
100
AcDbLine
 10
-462.0000149321095
 20
-6227.00000000001
 30
0.0
 11
-462.0000149321095
 21
-4907.00000000001
 31
0.0
  0
LINE
  5
184A0
330
18394
100
AcDbEntity
  8
SUGATA
 62
     1
370
     9
100
AcDbLine
 10
-367.0000149321095
 20
-6227.00000000001
 30
0.0
 11
-367.0000149321095
 21
-4907.00000000001
 31
0.0
  0
LINE
  5
184A1
330
18394
100
AcDbEntity
  8
SUGATA
 62
     1
370
     9
100
AcDbLine
 10
-346.0000149321131
 20
-6227.00000000001
 30
0.0
 11
-346.0000149321131
 21
-4907.00000000001
 31
0.0
  0
LINE
  5
184A2
330
18394
100
AcDbEntity
  8
SUGATA
 62
     1
370
     9
100
AcDbLine
 10
-251.0000149321131
 20
-6227.00000000001
 30
0.0
 11
-251.0000149321131
 21
-4907.00000000001
 31
0.0
  0
LINE
  5
184A3
330
18394
100
AcDbEntity
  8
SUGATA
 62
     1
370
     9
100
AcDbLine
 10
-230.0000149321131
 20
-6227.00000000001
 30
0.0
 11
-230.0000149321131
 21
-4907.00000000001
 31
0.0
  0
LINE
  5
184A4
330
18394
100
AcDbEntity
  8
SUGATA
 62
     1
370
     9
100
AcDbLine
 10
-135.0000149321131
 20
-6227.00000000001
 30
0.0
 11
-135.0000149321131
 21
-4907.00000000001
 31
0.0
  0
LINE
  5
184A5
330
18394
100
AcDbEntity
  8
SUGATA
 62
     1
370
     9
100
AcDbLine
 10
-114.0000149321094
 20
-6227.00000000001
 30
0.0
 11
-114.0000149321094
 21
-4907.00000000001
 31
0.0
  0
LINE
  5
184A6
330
18394
100
AcDbEntity
  8
SUGATA
 62
     1
370
     9
100
AcDbLine
 10
-19.00001493211312
 20
-6227.00000000001
 30
0.0
 11
-19.00001493211312
 21
-4907.00000000001
 31
0.0
  0
LINE
  5
184A7
330
18394
100
AcDbEntity
  8
SUGATA
 62
     1
370
     9
100
AcDbLine
 10
1.99998506789052
 20
-6227.00000000001
 30
0.0
 11
1.99998506789052
 21
-4907.00000000001
 31
0.0
  0
LINE
  5
184A8
330
18394
100
AcDbEntity
  8
SUGATA
 62
     1
370
     9
100
AcDbLine
 10
96.99998506789052
 20
-6227.00000000001
 30
0.0
 11
96.99998506789052
 21
-4907.00000000001
 31
0.0
  0
LINE
  5
184A9
330
18394
100
AcDbEntity
  8
SUGATA
 62
     1
370
     9
100
AcDbLine
 10
117.9999850678905
 20
-6227.00000000001
 30
0.0
 11
117.9999850678905
 21
-4907.00000000001
 31
0.0
  0
LINE
  5
184AA
330
18394
100
AcDbEntity
  8
SUGATA
 62
     1
370
     9
100
AcDbLine
 10
212.9999850678905
 20
-6227.00000000001
 30
0.0
 11
212.9999850678905
 21
-4907.00000000001
 31
0.0
  0
LINE
  5
184AB
330
18394
100
AcDbEntity
  8
SUGATA
 62
     1
370
     9
100
AcDbLine
 10
233.9999850678869
 20
-6227.00000000001
 30
0.0
 11
233.9999850678869
 21
-4907.00000000001
 31
0.0
  0
LINE
  5
184AC
330
18394
100
AcDbEntity
  8
SUGATA
 62
     1
370
     9
100
AcDbLine
 10
328.9999850678869
 20
-6227.00000000001
 30
0.0
 11
328.9999850678869
 21
-4907.00000000001
 31
0.0
  0
LINE
  5
184AD
330
18394
100
AcDbEntity
  8
SUGATA
 62
     1
370
     9
100
AcDbLine
 10
349.9999850678869
 20
-6227.00000000001
 30
0.0
 11
349.9999850678869
 21
-4907.00000000001
 31
0.0
  0
LINE
  5
184AE
330
18394
100
AcDbEntity
  8
SUGATA
 62
     1
370
     9
100
AcDbLine
 10
444.9999850678868
 20
-6227.00000000001
 30
0.0
 11
444.9999850678868
 21
-4907.00000000001
 31
0.0
  0
LINE
  5
184AF
330
18394
100
AcDbEntity
  8
SUGATA
 62
     1
370
     9
100
AcDbLine
 10
465.9999850678905
 20
-6227.00000000001
 30
0.0
 11
465.9999850678905
 21
-4907.00000000001
 31
0.0
  0
LWPOLYLINE
  5
184B0
330
18394
100
AcDbEntity
  8
SUGATA
 62
     3
370
     9
100
AcDbPolyline
 90
        6
 70
     0
 43
0.0
 10
-487.200014932343
 20
-4800.000000000011
 10
-487.200014932343
 20
-4864.799999999999
 42
-0.4142135623730827
 10
-489.2000149323393
 20
-4866.799999999999
 10
-513.8000149321124
 20
-4866.799999999999
 42
-0.4142135623730827
 10
-515.8000149321123
 20
-4864.799999999999
 10
-515.8000149321123
 20
-4800.000000000011
  0
LWPOLYLINE
  5
184B1
330
18394
100
AcDbEntity
  8
SUGATA
 62
     3
370
     9
100
AcDbPolyline
 90
        6
 70
     0
 43
0.0
 10
-342.2000149323358
 20
-4800.000000000011
 10
-342.2000149323358
 20
-4864.799999999999
 42
-0.4142135623730827
 10
-344.2000149323394
 20
-4866.799999999999
 10
-368.8000149321088
 20
-4866.799999999999
 42
-0.4142135623730827
 10
-370.8000149321124
 20
-4864.799999999999
 10
-370.8000149321124
 20
-4800.000000000011
  0
LWPOLYLINE
  5
184B2
330
18394
100
AcDbEntity
  8
SUGATA
 62
     3
370
     9
100
AcDbPolyline
 90
        6
 70
     0
 43
0.0
 10
-197.200014932343
 20
-4800.000000000011
 10
-197.200014932343
 20
-4864.799999999999
 42
-0.4142135623730827
 10
-199.2000149323394
 20
-4866.799999999999
 10
-223.8000149321124
 20
-4866.799999999999
 42
-0.4142135623730827
 10
-225.8000149321124
 20
-4864.799999999999
 10
-225.8000149321124
 20
-4800.000000000011
  0
LWPOLYLINE
  5
184B3
330
18394
100
AcDbEntity
  8
SUGATA
 62
     3
370
     9
100
AcDbPolyline
 90
        6
 70
     0
 43
0.0
 10
-52.20001493234303
 20
-4800.000000000011
 10
-52.20001493234303
 20
-4864.799999999999
 42
-0.4142135623730827
 10
-54.20001493233939
 20
-4866.799999999999
 10
-78.80001493211238
 20
-4866.799999999999
 42
-0.4142135623730827
 10
-80.8000149321124
 20
-4864.799999999999
 10
-80.8000149321124
 20
-4800.000000000011
  0
LWPOLYLINE
  5
184B4
330
18394
100
AcDbEntity
  8
SUGATA
 62
     3
370
     9
100
AcDbPolyline
 90
        6
 70
     0
 43
0.0
 10
92.79998506766423
 20
-4800.000000000011
 10
92.79998506766423
 20
-4864.799999999999
 42
-0.4142135623730827
 10
90.7999850676606
 20
-4866.799999999999
 10
66.19998506789125
 20
-4866.799999999999
 42
-0.4142135623730827
 10
64.19998506788761
 20
-4864.799999999999
 10
64.19998506788761
 20
-4800.000000000011
  0
LWPOLYLINE
  5
184B5
330
18394
100
AcDbEntity
  8
SUGATA
 62
     3
370
     9
100
AcDbPolyline
 90
        6
 70
     0
 43
0.0
 10
237.7999850676642
 20
-4800.000000000011
 10
237.7999850676642
 20
-4864.799999999999
 42
-0.4142135623730827
 10
235.7999850676606
 20
-4866.799999999999
 10
211.1999850678913
 20
-4866.799999999999
 42
-0.4142135623730827
 10
209.1999850678876
 20
-4864.799999999999
 10
209.1999850678876
 20
-4800.000000000011
  0
LWPOLYLINE
  5
184B6
330
18394
100
AcDbEntity
  8
SUGATA
 62
     3
370
     9
100
AcDbPolyline
 90
        6
 70
     0
 43
0.0
 10
382.7999850676643
 20
-4800.000000000011
 10
382.7999850676643
 20
-4864.799999999999
 42
-0.4142135623730827
 10
380.7999850676606
 20
-4866.799999999999
 10
356.1999850678912
 20
-4866.799999999999
 42
-0.4142135623730827
 10
354.1999850678876
 20
-4864.799999999999
 10
354.1999850678876
 20
-4800.000000000011
  0
LINE
  5
184B7
330
18394
100
AcDbEntity
  8
SUGATA
 62
     1
370
     9
100
AcDbLine
 10
444.9999850678868
 20
-5105.000000000011
 30
0.0
 11
-636.000014932113
 21
-5105.000000000011
 31
0.0
  0
LINE
  5
184B8
330
18394
100
AcDbEntity
  8
SUGATA
 62
     1
370
     9
100
AcDbLine
 10
444.9999850678868
 20
-5127.000000000011
 30
0.0
 11
-636.000014932113
 21
-5127.000000000011
 31
0.0
  0
LINE
  5
184B9
330
18394
100
AcDbEntity
  8
SUGATA
 62
     1
370
     9
100
AcDbLine
 10
444.9999850678868
 20
-5439.00000000001
 30
0.0
 11
-636.000014932113
 21
-5439.00000000001
 31
0.0
  0
LINE
  5
184BA
330
18394
100
AcDbEntity
  8
SUGATA
 62
     1
370
     9
100
AcDbLine
 10
444.9999850678868
 20
-5461.000000000011
 30
0.0
 11
-636.000014932113
 21
-5461.000000000011
 31
0.0
  0
LINE
  5
184BB
330
18394
100
AcDbEntity
  8
SUGATA
 62
     1
370
     9
100
AcDbLine
 10
444.9999850678868
 20
-5773.000000000011
 30
0.0
 11
-636.000014932113
 21
-5773.000000000011
 31
0.0
  0
LINE
  5
184BC
330
18394
100
AcDbEntity
  8
SUGATA
 62
     1
370
     9
100
AcDbLine
 10
444.9999850678868
 20
-5795.000000000011
 30
0.0
 11
-636.000014932113
 21
-5795.000000000011
 31
0.0
  0
LINE
  5
184BD
330
18394
100
AcDbEntity
  8
SUGATA
 62
     1
370
     9
100
AcDbLine
 10
444.9999850678868
 20
-6107.00000000001
 30
0.0
 11
-636.000014932113
 21
-6107.00000000001
 31
0.0
  0
ARC
  5
184BE
330
18394
100
AcDbEntity
  8
SUGATA
 62
     3
370
     9
100
AcDbCircle
 10
2602.999985067894
 20
-4928.000000000011
 30
0.0
 40
23.00000000000466
100
AcDbArc
 50
90.0
 51
180.0
  0
ARC
  5
184BF
330
18394
100
AcDbEntity
  8
SUGATA
 62
     1
370
     9
100
AcDbCircle
 10
2601.505327457806
 20
-6210.527491288853
 30
0.0
 40
19.47805987099647
100
AcDbArc
 50
175.5021825198302
 51
268.6320602728805
  0
LWPOLYLINE
  5
184C0
330
18394
100
AcDbEntity
  8
SUGATA
 62
     1
370
     9
100
AcDbPolyline
 90
        9
 70
     0
 43
0.0
 10
2582.087253745394
 20
-6209.000000000011
 10
2582.012328027893
 20
-6209.000000000011
 10
2582.012328027893
 20
-4926.828663018135
 42
-0.4142135623732783
 10
2602.012328027908
 20
-4906.828663018135
 10
3962.987642107903
 20
-4906.828663019009
 42
-0.4142135623729119
 10
3982.987642107888
 20
-4926.828663019009
 10
3982.987642107888
 20
-6209.999999999428
 42
-0.4142135623730951
 10
3962.987642107889
 20
-6229.999999999429
 10
2601.040331944052
 20
-6229.999999999429
  0
LINE
  5
184C1
330
18394
100
AcDbEntity
  8
SUGATA
 62
     1
370
     9
100
AcDbLine
 10
2596.562541750394
 20
-6229.367971266515
 30
0.0
 11
2596.562541750394
 21
-4907.585486837266
 31
0.0
  0
LINE
  5
184C2
330
18394
100
AcDbEntity
  8
SUGATA
 62
     1
370
     9
100
AcDbLine
 10
2596.562541749452
 20
-6109.062556682514
 30
0.0
 11
3968.437428383826
 21
-6109.062556682514
 31
0.0
  0
LINE
  5
184C3
330
18394
100
AcDbEntity
  8
SUGATA
 62
     1
370
     9
100
AcDbLine
 10
2596.562541750394
 20
-6088.937443317507
 30
0.0
 11
3968.437428384761
 21
-6088.937443317507
 31
0.0
  0
LINE
  5
184C4
330
18394
100
AcDbEntity
  8
SUGATA
 62
     1
370
     9
100
AcDbLine
 10
2596.562541750394
 20
-5775.062556682515
 30
0.0
 11
3968.437428384761
 21
-5775.062556682515
 31
0.0
  0
LINE
  5
184C5
330
18394
100
AcDbEntity
  8
SUGATA
 62
     1
370
     9
100
AcDbLine
 10
2596.562541749452
 20
-5754.937443317508
 30
0.0
 11
3968.437428383826
 21
-5754.937443317508
 31
0.0
  0
LINE
  5
184C6
330
18394
100
AcDbEntity
  8
SUGATA
 62
     1
370
     9
100
AcDbLine
 10
2596.562541750394
 20
-5441.062556682514
 30
0.0
 11
3968.437428384761
 21
-5441.062556682514
 31
0.0
  0
LINE
  5
184C7
330
18394
100
AcDbEntity
  8
SUGATA
 62
     1
370
     9
100
AcDbLine
 10
2596.562541750394
 20
-5420.937443317507
 30
0.0
 11
3968.437428384761
 21
-5420.937443317507
 31
0.0
  0
LINE
  5
184C8
330
18394
100
AcDbEntity
  8
SUGATA
 62
     1
370
     9
100
AcDbLine
 10
2596.562541750394
 20
-5107.062556682515
 30
0.0
 11
3968.437428384761
 21
-5107.062556682515
 31
0.0
  0
LINE
  5
184C9
330
18394
100
AcDbEntity
  8
SUGATA
 62
     1
370
     9
100
AcDbLine
 10
2596.562541750394
 20
-5086.937443317507
 30
0.0
 11
3968.437428384761
 21
-5086.937443317507
 31
0.0
  0
LINE
  5
184CA
330
18394
100
AcDbEntity
  8
SUGATA
 62
     2
100
AcDbLine
 10
2659.687675907888
 20
-6465.00000000001
 30
0.0
 11
2661.497778352579
 21
-6465.00000000001
 31
0.0
  0
LINE
  5
184CB
330
18394
100
AcDbEntity
  8
SUGATA
 62
     2
100
AcDbLine
 10
2758.502191547348
 20
-6465.00000000001
 30
0.0
 11
2941.999985067891
 21
-6465.000000000069
 31
0.0
  0
CIRCLE
  5
184CC
330
18394
100
AcDbEntity
  8
SUGATA
 62
     3
370
     9
100
AcDbCircle
 10
1549.999985067883
 20
-5635.000000000011
 30
0.0
 40
745.0
  0
CIRCLE
  5
184CD
330
18394
100
AcDbEntity
  8
SUGATA
 62
     3
370
     9
100
AcDbCircle
 10
1549.999985067883
 20
-5635.000000000011
 30
0.0
 40
682.0000000000004
  0
CIRCLE
  5
184CE
330
18394
100
AcDbEntity
  8
SUGATA
 62
     3
370
     9
100
AcDbCircle
 10
1549.999985067883
 20
-5635.000000000011
 30
0.0
 40
697.0000000000005
  0
CIRCLE
  5
184CF
330
18394
100
AcDbEntity
  8
SUGATA
 62
     3
370
     9
100
AcDbCircle
 10
1549.999985067887
 20
-5635.000000000011
 30
0.0
 40
727.0000000000004
  0
LINE
  5
184D0
330
18394
100
AcDbEntity
  8
SUGATA
 62
     1
370
     9
100
AcDbLine
 10
2692.437428385391
 20
-4906.828663018194
 30
0.0
 11
2692.437428385391
 21
-6229.999999999429
 31
0.0
  0
LINE
  5
184D1
330
18394
100
AcDbEntity
  8
SUGATA
 62
     1
370
     9
100
AcDbLine
 10
2712.562541750394
 20
-4906.828663018194
 30
0.0
 11
2712.562541750394
 21
-6229.999999999429
 31
0.0
  0
LINE
  5
184D2
330
18394
100
AcDbEntity
  8
SUGATA
 62
     1
370
     9
100
AcDbLine
 10
2808.437428385394
 20
-4906.82866456285
 30
0.0
 11
2808.437428385394
 21
-6230.000001544027
 31
0.0
  0
LINE
  5
184D3
330
18394
100
AcDbEntity
  8
SUGATA
 62
     1
370
     9
100
AcDbLine
 10
2828.562541750391
 20
-4906.828663018194
 30
0.0
 11
2828.562541750391
 21
-6229.999999999429
 31
0.0
  0
LINE
  5
184D4
330
18394
100
AcDbEntity
  8
SUGATA
 62
     1
370
     9
100
AcDbLine
 10
2924.437428385394
 20
-4906.828664944576
 30
0.0
 11
2924.437428385394
 21
-6230.000001925869
 31
0.0
  0
LINE
  5
184D5
330
18394
100
AcDbEntity
  8
SUGATA
 62
     1
370
     9
100
AcDbLine
 10
2944.562541750395
 20
-4906.828661557415
 30
0.0
 11
2944.562541750395
 21
-6229.999998538649
 31
0.0
  0
LINE
  5
184D6
330
18394
100
AcDbEntity
  8
SUGATA
 62
     1
370
     9
100
AcDbLine
 10
3040.436903142894
 20
-4906.828663018194
 30
0.0
 11
3040.436903142894
 21
-6229.999999999429
 31
0.0
  0
LINE
  5
184D7
330
18394
100
AcDbEntity
  8
SUGATA
 62
     1
370
     9
100
AcDbLine
 10
3060.562541750395
 20
-4906.828663018194
 30
0.0
 11
3060.562541750395
 21
-6229.999999999429
 31
0.0
  0
LINE
  5
184D8
330
18394
100
AcDbEntity
  8
SUGATA
 62
     1
370
     9
100
AcDbLine
 10
3156.437428385391
 20
-4906.82866648574
 30
0.0
 11
3156.437428385391
 21
-6230.000003466976
 31
0.0
  0
LINE
  5
184D9
330
18394
100
AcDbEntity
  8
SUGATA
 62
     1
370
     9
100
AcDbLine
 10
3176.562541750394
 20
-4906.828663018194
 30
0.0
 11
3176.562541750394
 21
-6229.999999999429
 31
0.0
  0
LINE
  5
184DA
330
18394
100
AcDbEntity
  8
SUGATA
 62
     1
370
     9
100
AcDbLine
 10
3272.437428385391
 20
-4906.828668681799
 30
0.0
 11
3272.437428385391
 21
-6230.000005663093
 31
0.0
  0
LINE
  5
184DB
330
18394
100
AcDbEntity
  8
SUGATA
 62
     1
370
     9
100
AcDbLine
 10
3292.563066992891
 20
-4906.828663018194
 30
0.0
 11
3292.563066992891
 21
-6229.999999999429
 31
0.0
  0
LINE
  5
184DC
330
18394
100
AcDbEntity
  8
SUGATA
 62
     1
370
     9
100
AcDbLine
 10
3388.43742838539
 20
-4906.828668026847
 30
0.0
 11
3388.43742838539
 21
-6230.000005008082
 31
0.0
  0
LINE
  5
184DD
330
18394
100
AcDbEntity
  8
SUGATA
 62
     1
370
     9
100
AcDbLine
 10
3408.562541750391
 20
-4906.828663018194
 30
0.0
 11
3408.562541750391
 21
-6229.999999999429
 31
0.0
  0
LINE
  5
184DE
330
18394
100
AcDbEntity
  8
SUGATA
 62
     1
370
     9
100
AcDbLine
 10
3504.437428385394
 20
-4906.828668797458
 30
0.0
 11
3504.437428385394
 21
-6230.000005778693
 31
0.0
  0
LINE
  5
184DF
330
18394
100
AcDbEntity
  8
SUGATA
 62
     1
370
     9
100
AcDbLine
 10
3524.562541750391
 20
-4906.828663018194
 30
0.0
 11
3524.562541750391
 21
-6229.999999999429
 31
0.0
  0
LINE
  5
184E0
330
18394
100
AcDbEntity
  8
SUGATA
 62
     1
370
     9
100
AcDbLine
 10
3620.43742838539
 20
-4906.82866956801
 30
0.0
 11
3620.43742838539
 21
-6230.000006549246
 31
0.0
  0
LINE
  5
184E1
330
18394
100
AcDbEntity
  8
SUGATA
 62
     1
370
     9
100
AcDbLine
 10
3640.562541750391
 20
-4906.828663018194
 30
0.0
 11
3640.562541750391
 21
-6229.999999999429
 31
0.0
  0
LINE
  5
184E2
330
18394
100
AcDbEntity
  8
SUGATA
 62
     1
370
     9
100
AcDbLine
 10
3736.437428385391
 20
-4906.828670338564
 30
0.0
 11
3736.437428385391
 21
-6230.000007319799
 31
0.0
  0
LINE
  5
184E3
330
18394
100
AcDbEntity
  8
SUGATA
 62
     1
370
     9
100
AcDbLine
 10
3756.562541750387
 20
-4906.828663018194
 30
0.0
 11
3756.562541750387
 21
-6229.999999999429
 31
0.0
  0
LINE
  5
184E4
330
18394
100
AcDbEntity
  8
SUGATA
 62
     1
370
     9
100
AcDbLine
 10
3852.437428385394
 20
-4906.828673830674
 30
0.0
 11
3852.437428385394
 21
-6230.00001081191
 31
0.0
  0
LINE
  5
184E5
330
18394
100
AcDbEntity
  8
SUGATA
 62
     1
370
     9
100
AcDbLine
 10
3872.563066992891
 20
-4906.828663018194
 30
0.0
 11
3872.563066992891
 21
-6229.999999999429
 31
0.0
  0
LINE
  5
184E6
330
18394
100
AcDbEntity
  8
SUGATA
 62
     1
370
     9
100
AcDbLine
 10
3968.437428385394
 20
-4907.585486838139
 30
0.0
 11
3968.437428385394
 21
-6229.243176180298
 31
0.0
  0
LINE
  5
184E7
330
18394
100
AcDbEntity
  8
THUSIN
  6
DASHDOT
 62
     7
 48
0.5
100
AcDbLine
 10
4334.999985067873
 20
-5635.000000016287
 30
0.0
 11
-1235.000014932112
 21
-5635.000000016287
 31
0.0
  0
LINE
  5
184E8
330
18394
100
AcDbEntity
  8
SUNPO
  6
Continuous
 62
     1
100
AcDbLine
 10
4384.999985067872
 20
-4800.000000000011
 30
0.0
 11
5084.999985067057
 21
-4800.000000000011
 31
0.0
  0
LINE
  5
184E9
330
18394
100
AcDbEntity
  8
SUNPO
  6
Continuous
 62
     1
100
AcDbLine
 10
4384.999985067872
 20
-6500.000000000039
 30
0.0
 11
5084.999985067057
 21
-6500.000000000039
 31
0.0
  0
LINE
  5
184EA
330
18394
100
AcDbEntity
  8
SUNPO
  6
Continuous
 62
     1
100
AcDbLine
 10
4884.999985067873
 20
-4800.000000000011
 30
0.0
 11
4884.999985067873
 21
-5050.000000000011
 31
0.0
  0
LINE
  5
184EB
330
18394
100
AcDbEntity
  8
SUNPO
  6
Continuous
 62
     1
100
AcDbLine
 10
4884.999985067873
 20
-4800.000000000011
 30
0.0
 11
4951.98484834918
 21
-5050.000000000011
 31
0.0
  0
LINE
  5
184EC
330
18394
100
AcDbEntity
  8
SUNPO
  6
Continuous
 62
     1
100
AcDbLine
 10
4818.010238974181
 20
-5050.000000000011
 30
0.0
 11
4884.999985067873
 21
-4800.000000000011
 31
0.0
  0
LINE
  5
184ED
330
18394
100
AcDbEntity
  8
SUNPO
  6
Continuous
 62
     1
100
AcDbLine
 10
4884.999985067873
 20
-5050.000000000011
 30
0.0
 11
4884.999985067057
 21
-6250.00000000004
 31
0.0
  0
LINE
  5
184EE
330
18394
100
AcDbEntity
  8
SUNPO
  6
Continuous
 62
     1
100
AcDbLine
 10
4951.984848348366
 20
-6250.00000000004
 30
0.0
 11
4884.999985067057
 21
-6500.000000000039
 31
0.0
  0
LINE
  5
184EF
330
18394
100
AcDbEntity
  8
SUNPO
  6
Continuous
 62
     1
100
AcDbLine
 10
4884.999985067057
 20
-6500.000000000039
 30
0.0
 11
4884.999985067057
 21
-6250.00000000004
 31
0.0
  0
LINE
  5
184F0
330
18394
100
AcDbEntity
  8
SUNPO
  6
Continuous
 62
     1
100
AcDbLine
 10
4884.999985067057
 20
-6500.000000000039
 30
0.0
 11
4818.010238973365
 21
-6250.00000000004
 31
0.0
  0
TEXT
  5
184F1
330
18394
100
AcDbEntity
  8
SUNPO
 62
     4
100
AcDbText
 10
4784.999985067879
 20
-6007.142857142886
 30
0.0
 40
300.0
  1
170
 50
90.0
 72
     1
 11
4784.999985067879
 21
-5650.000000000029
 31
0.0
100
AcDbText
  0
TEXT
  5
184F2
330
18394
100
AcDbEntity
  8
SUNPO
 62
     4
100
AcDbText
 10
-1448.000014932124
 20
-6715.500000008148
 30
0.0
 40
300.0
  1
（86.5）
 50
90.0
 41
0.8
 72
     1
 11
-1448.000014932124
 21
-6067.500000008148
 31
0.0
100
AcDbText
  0
LINE
  5
184F3
330
18394
100
AcDbEntity
  8
SUNPO
  6
Continuous
 62
     1
100
AcDbLine
 10
-1248.000014932131
 20
-6500.000000000011
 30
0.0
 11
-1448.000014932131
 21
-6500.000000000011
 31
0.0
  0
LINE
  5
184F4
330
18394
100
AcDbEntity
  8
SUNPO
  6
Continuous
 62
     1
100
AcDbLine
 10
-1348.000014932946
 20
-5635.000000016287
 30
0.0
 11
-1348.000014932946
 21
-5885.000000016287
 31
0.0
  0
LINE
  5
184F5
330
18394
100
AcDbEntity
  8
SUNPO
  6
Continuous
 62
     1
100
AcDbLine
 10
-1348.000014932946
 20
-5635.000000016287
 30
0.0
 11
-1414.984878214254
 21
-5885.000000016287
 31
0.0
  0
LINE
  5
184F6
330
18394
100
AcDbEntity
  8
SUNPO
  6
Continuous
 62
     1
100
AcDbLine
 10
-1281.010268839254
 20
-5885.000000016287
 30
0.0
 11
-1348.000014932946
 21
-5635.000000016287
 31
0.0
  0
LINE
  5
184F7
330
18394
100
AcDbEntity
  8
SUNPO
  6
Continuous
 62
     1
100
AcDbLine
 10
-1348.000014932946
 20
-5885.000000016287
 30
0.0
 11
-1348.000014932131
 21
-6250.000000000011
 31
0.0
  0
LINE
  5
184F8
330
18394
100
AcDbEntity
  8
SUNPO
  6
Continuous
 62
     1
100
AcDbLine
 10
-1414.984878213439
 20
-6250.000000000011
 30
0.0
 11
-1348.000014932131
 21
-6500.000000000011
 31
0.0
  0
LINE
  5
184F9
330
18394
100
AcDbEntity
  8
SUNPO
  6
Continuous
 62
     1
100
AcDbLine
 10
-1348.000014932131
 20
-6500.000000000011
 30
0.0
 11
-1348.000014932131
 21
-6250.000000000011
 31
0.0
  0
LINE
  5
184FA
330
18394
100
AcDbEntity
  8
SUNPO
  6
Continuous
 62
     1
100
AcDbLine
 10
-1348.000014932131
 20
-6500.000000000011
 30
0.0
 11
-1281.010268838439
 21
-6250.000000000011
 31
0.0
  0
LINE
  5
184FB
330
18394
100
AcDbEntity
  8
SUNPO
  6
Continuous
 62
     1
100
AcDbLine
 10
-1248.000014932946
 20
-5635.000000016287
 30
0.0
 11
-1448.000014932946
 21
-5635.000000016287
 31
0.0
  0
LINE
  5
184FC
330
18394
100
AcDbEntity
  8
THUSIN
  6
DASHDOT
 62
     7
 48
0.5
100
AcDbLine
 10
1549.999985067875
 20
-4600.000000000011
 30
0.0
 11
1549.999985067875
 21
-6700.000000000011
 31
0.0
  0
LINE
  5
184FD
330
18394
100
AcDbEntity
  8
SUGATA
 62
     2
100
AcDbLine
 10
8926.672972905283
 20
-6474.999999999738
 30
0.0
 11
9101.327092847201
 21
-6474.999999999862
 31
0.0
  0
LWPOLYLINE
  5
184FE
330
18394
100
AcDbEntity
  8
SUGATA
 62
     2
100
AcDbPolyline
 90
        4
 70
     0
 43
0.0
 10
6754.499983970141
 20
-6485.659678105014
 10
6754.499983970141
 20
-6500.000000000011
 10
6881.499983970141
 20
-6500.000000000011
 10
6881.499983970141
 20
-6485.659678104991
  0
LWPOLYLINE
  5
184FF
330
18394
100
AcDbEntity
  8
SUGATA
 62
     2
100
AcDbPolyline
 90
        6
 70
     0
 43
0.0
 10
6754.499983970141
 20
-6485.659678105014
 10
6748.278551482632
 20
-6485.659678105014
 10
6747.906479390171
 20
-6485.636515750015
 10
6739.336814002694
 20
-6484.498592281164
 42
-0.3710834407776907
 10
6736.732159970364
 20
-6481.577052624572
 10
6736.661380697632
 20
-6477.522110900015
  0
LWPOLYLINE
  5
18500
330
18394
100
AcDbEntity
  8
SUGATA
 62
     2
100
AcDbPolyline
 90
        6
 70
     0
 43
0.0
 10
6881.499983970141
 20
-6485.659678104991
 10
6887.721416457651
 20
-6485.659678104991
 10
6888.09348855017
 20
-6485.636515750001
 10
6896.663153937618
 20
-6484.49859228115
 42
0.3710834407776907
 10
6899.267807969947
 20
-6481.57705262455
 10
6899.338587242652
 20
-6477.522110899994
  0
LWPOLYLINE
  5
18501
330
18394
100
AcDbEntity
  8
SUGATA
 62
     2
100
AcDbPolyline
 90
        6
 70
     0
 43
0.0
 10
6736.661380697632
 20
-6477.522110900015
 10
6700.214334112658
 20
-6477.522110900015
 10
6699.585764795141
 20
-6477.455521990018
 10
6689.095179481963
 20
-6475.102746085799
 42
-0.3485263131717817
 10
6686.751810093389
 20
-6472.201642610733
 10
6686.688962309425
 20
-6465.000000000026
  0
LWPOLYLINE
  5
18502
330
18394
100
AcDbEntity
  8
SUGATA
 62
     2
100
AcDbPolyline
 90
        5
 70
     0
 43
0.0
 10
6899.338587242652
 20
-6477.522110900015
 10
6935.785633827683
 20
-6477.522110900015
 10
6936.41420314514
 20
-6477.455521990018
 10
6946.90478845832
 20
-6475.102746085799
 42
0.0307801197986323
 10
6947.259207662813
 20
-6475.000000000012
 42
0.0307801197986323
  0
LWPOLYLINE
  5
18503
330
18394
100
AcDbEntity
  8
SUGATA
 62
     3
370
     9
100
AcDbPolyline
 90
        7
 70
     0
 43
0.0
 10
6686.66435636767
 20
-6462.180438390013
 10
6643.345471117652
 20
-6462.180438390013
 10
6642.413418120129
 20
-6462.031977835021
 10
6638.260601847702
 20
-6460.656730451109
 42
-0.3089645779319734
 10
6636.20782469109
 20
-6457.965837197832
 10
6636.060253645243
 20
-6455.150013889364
 10
6635.185685385171
 20
-6453.185701415012
  0
LWPOLYLINE
  5
18504
330
18394
100
AcDbEntity
  8
SUGATA
 62
     3
370
     9
100
AcDbPolyline
 90
       12
 70
     0
 43
0.0
 10
6624.999983970141
 20
-6262.000000000011
 10
6625.112600591826
 20
-6255.548198084583
 42
-0.3868230818182929
 10
6629.727415845737
 20
-6250.650260142469
 10
6701.893817498239
 20
-6245.085299704759
 42
0.1789847667224692
 10
6703.784483909266
 20
-6244.215500063004
 10
6706.535517875753
 20
-6241.464466095047
 42
-0.198912367449899
 10
6710.071051782674
 20
-6240.000000000025
 10
6722.551892182186
 20
-6240.000000000011
 42
0.4091108014920641
 10
6725.551435267677
 20
-6237.052357218662
 10
6725.588782460116
 20
-6234.912737968942
 42
-0.4091108014921511
 10
6730.588020935925
 20
-6230.000000000025
 10
6730.588020935925
 20
-6230.000000000025
  0
LWPOLYLINE
  5
18505
330
18394
100
AcDbEntity
  8
SUGATA
 62
     3
370
     9
100
AcDbPolyline
 90
        7
 70
     0
 43
0.0
 10
6624.999983970141
 20
-6262.000000000011
 10
6618.17998419016
 20
-6262.000000000011
 10
6627.711926027529
 20
-6443.706749432738
 10
6627.739141617647
 20
-6444.028683975016
 10
6628.045945280153
 20
-6445.263840242517
 10
6628.654594760134
 20
-6446.38393060752
 10
6635.185685383716
 20
-6453.185701413949
  0
LWPOLYLINE
  5
18506
330
18394
100
AcDbEntity
  8
SUGATA
 62
     3
370
     9
100
AcDbPolyline
 90
        7
 70
     0
 43
0.0
 10
7010.999983970141
 20
-6262.000000000011
 10
7017.819983750124
 20
-6262.000000000011
 10
7008.288041912755
 20
-6443.706749432738
 10
7008.260826322665
 20
-6444.028683975016
 10
7007.954022660131
 20
-6445.263840242517
 10
7007.345373180149
 20
-6446.38393060752
 10
7000.814282556625
 20
-6453.185701413949
  0
LWPOLYLINE
  5
18507
330
18394
100
AcDbEntity
  8
SUGATA
 62
     3
370
     9
100
AcDbPolyline
 90
        7
 70
     0
 43
0.0
 10
6949.335611572671
 20
-6462.180438389975
 10
6992.65449682263
 20
-6462.180438389954
 10
6993.586549820154
 20
-6462.031977834962
 10
6997.739366092581
 20
-6460.65673045105
 42
0.3089645779319734
 10
6999.792143249194
 20
-6457.965837197774
 10
6999.93971429504
 20
-6455.150013889313
 10
7000.81428255514
 20
-6453.185701414954
  0
LINE
  5
18508
330
18394
100
AcDbEntity
  8
SUGATA
 62
     3
370
     9
100
AcDbLine
 10
6881.499983970141
 20
-6485.659678105007
 30
0.0
 11
6754.499983970141
 21
-6485.659678105007
 31
0.0
  0
LINE
  5
18509
330
18394
100
AcDbEntity
  8
SUGATA
 62
     3
370
     9
100
AcDbLine
 10
6899.338587242652
 20
-6477.522110900015
 30
0.0
 11
6736.661380697632
 21
-6477.522110900015
 31
0.0
  0
LINE
  5
1850A
330
18394
100
AcDbEntity
  8
SUGATA
 62
     3
370
     9
100
AcDbLine
 10
6949.335611572671
 20
-6462.180438390013
 30
0.0
 11
6686.66435636767
 21
-6462.180438390013
 31
0.0
  0
LINE
  5
1850B
330
18394
100
AcDbEntity
  8
SUGATA
 62
     3
370
     9
100
AcDbLine
 10
7010.999983970141
 20
-6262.000000000011
 30
0.0
 11
6624.999983970141
 21
-6262.000000000011
 31
0.0
  0
LINE
  5
1850C
330
18394
100
AcDbEntity
  8
SUGATA
 62
     3
370
     9
100
AcDbLine
 10
6722.551892182652
 20
-6240.000000000025
 30
0.0
 11
6913.448075760164
 21
-6240.000000000025
 31
0.0
  0
LINE
  5
1850D
330
18394
100
AcDbEntity
  8
SUGATA
 62
     3
370
     9
100
AcDbLine
 10
7000.814282556712
 20
-6453.185701413826
 30
0.0
 11
6635.185685385521
 21
-6453.185701415826
 31
0.0
  0
LINE
  5
1850E
330
18394
100
AcDbEntity
  8
SUGATA
 62
     3
370
     9
100
AcDbLine
 10
6912.117392545166
 20
-6262.000000000011
 30
0.0
 11
6907.105946804898
 21
-6453.185701414335
 31
0.0
  0
LINE
  5
1850F
330
18394
100
AcDbEntity
  8
SUGATA
 62
     3
370
     9
100
AcDbLine
 10
6946.44039777015
 20
-6262.000000000011
 30
0.0
 11
6939.732287004365
 21
-6453.185701414153
 31
0.0
  0
LINE
  5
18510
330
18394
100
AcDbEntity
  8
SUGATA
 62
     3
370
     9
100
AcDbLine
 10
6975.281172945172
 20
-6262.000000000011
 30
0.0
 11
6967.169351871715
 21
-6453.185701412516
 31
0.0
  0
LINE
  5
18511
330
18394
100
AcDbEntity
  8
SUGATA
 62
     3
370
     9
100
AcDbLine
 10
6997.379127640138
 20
-6262.000000000011
 30
0.0
 11
6988.218440663455
 21
-6453.185701413899
 31
0.0
  0
LINE
  5
18512
330
18394
100
AcDbEntity
  8
SUGATA
 62
     3
370
     9
100
AcDbLine
 10
6723.882575395176
 20
-6262.000000000011
 30
0.0
 11
6728.894021135471
 21
-6453.185701415318
 31
0.0
  0
LINE
  5
18513
330
18394
100
AcDbEntity
  8
SUGATA
 62
     3
370
     9
100
AcDbLine
 10
6689.559570170131
 20
-6262.000000000011
 30
0.0
 11
6696.267680936006
 21
-6453.185701415499
 31
0.0
  0
LINE
  5
18514
330
18394
100
AcDbEntity
  8
SUGATA
 62
     3
370
     9
100
AcDbLine
 10
6660.718794995169
 20
-6262.000000000011
 30
0.0
 11
6668.830616068714
 21
-6453.185701415645
 31
0.0
  0
LINE
  5
18515
330
18394
100
AcDbEntity
  8
SUGATA
 62
     3
370
     9
100
AcDbLine
 10
6638.620840300143
 20
-6262.000000000011
 30
0.0
 11
6647.781527276944
 21
-6453.185701415768
 31
0.0
  0
LINE
  5
18516
330
18394
100
AcDbEntity
  8
SUGATA
 62
     3
370
     9
100
AcDbLine
 10
6873.809093847646
 20
-6262.000000000011
 30
0.0
 11
6870.713178790037
 21
-6453.185701414539
 31
0.0
  0
LINE
  5
18517
330
18394
100
AcDbEntity
  8
SUGATA
 62
     3
370
     9
100
AcDbLine
 10
6833.101492090158
 20
-6262.000000000011
 30
0.0
 11
6832.055868489966
 21
-6453.185701414757
 31
0.0
  0
LINE
  5
18518
330
18394
100
AcDbEntity
  8
SUGATA
 62
     3
370
     9
100
AcDbLine
 10
6762.190874095139
 20
-6262.000000000011
 30
0.0
 11
6765.286789152779
 21
-6453.185701415121
 31
0.0
  0
LINE
  5
18519
330
18394
100
AcDbEntity
  8
SUGATA
 62
     3
370
     9
100
AcDbLine
 10
6802.898475852656
 20
-6262.000000000011
 30
0.0
 11
6803.944099450172
 21
-6453.185701414902
 31
0.0
  0
LWPOLYLINE
  5
1851A
330
18394
100
AcDbEntity
  8
SUGATA
 62
     3
370
     9
100
AcDbPolyline
 90
       12
 70
     0
 43
0.0
 10
7010.999983970141
 20
-6262.000000000011
 10
7010.887367348456
 20
-6255.548198084583
 42
0.3868230818182929
 10
7006.272552094547
 20
-6250.650260142469
 10
6934.106150442044
 20
-6245.085299704759
 42
-0.1789847667224692
 10
6932.215484031018
 20
-6244.215500063004
 10
6929.46445006453
 20
-6241.464466095047
 42
0.198912367449899
 10
6925.928916157667
 20
-6240.000000000025
 10
6913.448075758125
 20
-6240.000000000011
 42
-0.4091108014920641
 10
6910.448532672664
 20
-6237.052357218662
 10
6910.411185480167
 20
-6234.912737968942
 42
0.4091108014921511
 10
6905.411947004388
 20
-6230.000000000025
 10
6905.411947004388
 20
-6230.000000000025
  0
LINE
  5
1851B
330
18394
100
AcDbEntity
  8
SUGATA
 62
     3
370
     9
100
AcDbLine
 10
6686.688962310153
 20
-6465.000000000026
 30
0.0
 11
6686.688962310153
 21
-6462.180438390013
 31
0.0
  0
LWPOLYLINE
  5
1851C
330
18394
100
AcDbEntity
  8
SUGATA
 62
     3
370
     9
100
AcDbPolyline
 90
        3
 70
     0
 43
0.0
 10
6947.259207662813
 20
-6475.000000000012
 42
0.3143736924738134
 10
6949.248157846923
 20
-6472.20164261074
 10
6949.335611572671
 20
-6462.180438390013
  0
LWPOLYLINE
  5
1851D
330
18394
100
AcDbEntity
  8
SUGATA
 62
     2
100
AcDbPolyline
 90
        5
 70
     0
 43
0.0
 10
6397.49998397017
 20
-4928.24264068752
 10
6397.49998397017
 20
-4864.685553322513
 10
6330.476624407697
 20
-4868.198098757482
 42
0.3989595459728606
 10
6320.999983970142
 20
-4878.184394105014
 10
6320.999983970142
 20
-5135.000000000011
  0
LWPOLYLINE
  5
1851E
330
18394
100
AcDbEntity
  8
SUGATA
 62
     2
100
AcDbPolyline
 90
        5
 70
     0
 43
0.0
 10
6397.49998397017
 20
-4928.24264068752
 10
6397.49998397017
 20
-6345.000000000011
 10
6330.476624407697
 20
-6341.487454565056
 42
-0.3989595459728606
 10
6320.999983970142
 20
-6331.501159217518
 10
6320.999983970142
 20
-6135.000000000011
  0
LWPOLYLINE
  5
1851F
330
18394
100
AcDbEntity
  8
SUGATA
 62
     2
100
AcDbPolyline
 90
       20
 70
     0
 43
0.0
 10
10777.99998397017
 20
-4950.766190377511
 10
10777.99998397017
 20
-4910.000000000025
 42
0.4142135623730618
 10
10774.99998397017
 20
-4907.00000000001
 10
10770.47590617766
 20
-4907.00000000001
 10
10770.99998397014
 20
-4897.000000000011
 10
10772.78287784017
 20
-4897.000000000011
 42
0.4348123749587586
 10
10775.77556999092
 20
-4893.790730578807
 10
10770.19281767405
 20
-4813.953652893946
 42
0.3939104756167845
 10
10755.22935692015
 20
-4800.000000000025
 10
6420.770611021442
 20
-4800.000000000025
 42
0.3939104756120985
 10
6405.807150267538
 20
-4813.953652893713
 10
6400.224397949358
 20
-4893.790730578756
 42
0.4348123749640135
 10
6403.217090100174
 20
-4897.000000000011
 10
6404.999983970171
 20
-4897.000000000011
 10
6405.524061762648
 20
-4907.00000000001
 10
6400.999983970141
 20
-4907.00000000001
 42
0.4142135623730618
 10
6397.99998397017
 20
-4910.000000000025
 10
6397.99998397017
 20
-6364.000000000018
 42
0.4142135623730618
 10
6400.999983970141
 20
-6367.000000000011
 10
6423.499983970142
 20
-6367.000000000011
  0
LWPOLYLINE
  5
18520
330
18394
100
AcDbEntity
  8
SUGATA
 62
     2
100
AcDbPolyline
 90
        7
 70
     0
 43
0.0
 10
6686.688962310153
 20
-6465.000000106924
 10
6620.89306286758
 20
-6465.000000000026
 42
-0.3888787313822381
 10
6615.912089385244
 20
-6460.435778713803
 10
6608.239574541928
 20
-6372.738532771731
 42
0.3888787318498064
 10
6605.250990447654
 20
-6370.000000000025
 10
6426.499983970142
 20
-6370.000000000025
 42
-0.4142135623730618
 10
6423.499983970142
 20
-6367.000000000011
  0
LINE
  5
18521
330
18394
100
AcDbEntity
  8
SUGATA
 62
     3
370
     9
100
AcDbLine
 10
6423.499983970142
 20
-6367.000000000011
 30
0.0
 11
6423.499983970142
 21
-6227.00000000001
 31
0.0
  0
LINE
  5
18522
330
18394
100
AcDbEntity
  8
SUGATA
 62
     3
370
     9
100
AcDbLine
 10
6397.49998397017
 20
-5966.810471985013
 30
0.0
 11
6320.999983970142
 21
-5966.810471985013
 31
0.0
  0
LINE
  5
18523
330
18394
100
AcDbEntity
  8
SUGATA
 62
     3
370
     9
100
AcDbLine
 10
6320.999983970142
 20
-6135.000000000011
 30
0.0
 11
6320.999983970142
 21
-5135.000000000011
 31
0.0
  0
LINE
  5
18524
330
18394
100
AcDbEntity
  8
SUGATA
 62
     3
370
     9
100
AcDbLine
 10
6397.49998397017
 20
-5065.000000000026
 30
0.0
 11
6320.999983970142
 21
-5065.000000000026
 31
0.0
  0
ARC
  5
18525
330
18394
100
AcDbEntity
  8
SUGATA
 62
     2
100
AcDbCircle
 10
10758.36606205529
 20
-5023.753047042981
 30
0.0
 40
49.63398520733379
100
AcDbArc
 50
311.2181329954268
 51
0.0915021886873073
  0
ARC
  5
18526
330
18394
100
AcDbEntity
  8
SUGATA
 62
     2
100
AcDbCircle
 10
10757.99998397014
 20
-5015.325756950024
 30
0.0
 40
50.00000000000726
100
AcDbArc
 50
359.9994704579433
 51
66.421821521678
  0
LINE
  5
18527
330
18394
100
AcDbEntity
  8
SUGATA
 62
     2
100
AcDbLine
 10
10807.99998378862
 20
-5023.674243050013
 30
0.0
 11
10807.99998396801
 21
-5015.326219062506
 31
0.0
  0
LWPOLYLINE
  5
18528
330
18394
100
AcDbEntity
  8
SUGATA
 62
     2
100
AcDbPolyline
 90
        4
 70
     0
 43
0.0
 10
10777.99998397017
 20
-4950.766190377511
 10
10778.99998397014
 20
-4950.766190377511
 42
-0.4142135623728952
 10
10779.99998397017
 20
-4951.766190377519
 10
10779.99998397017
 20
-4970.425868308728
  0
LINE
  5
18529
330
18394
100
AcDbEntity
  8
SUGATA
 62
     3
370
     9
100
AcDbLine
 10
10777.99998397017
 20
-4950.766190377511
 30
0.0
 11
10778.00000176009
 21
-5159.99997950454
 31
0.0
  0
LINE
  5
1852A
330
18394
100
AcDbEntity
  8
SUGATA
 62
     3
370
     9
100
AcDbLine
 10
10777.99998397107
 20
-5532.000000000317
 30
0.0
 11
10777.99998397023
 21
-5679.500000000651
 31
0.0
  0
LINE
  5
1852B
330
18394
100
AcDbEntity
  8
SUGATA
 62
     3
370
     9
100
AcDbLine
 10
10778.00000210346
 20
-6017.000011676562
 30
0.0
 11
10777.99998581945
 21
-6163.500039152972
 31
0.0
  0
LINE
  5
1852C
330
18394
100
AcDbEntity
  8
SUGATA
 62
     2
100
AcDbLine
 10
10777.99998397014
 20
-5159.999990960194
 30
0.0
 11
10777.99998397124
 21
-5532.000000000374
 31
0.0
  0
LINE
  5
1852D
330
18394
100
AcDbEntity
  8
SUGATA
 62
     2
100
AcDbLine
 10
10777.99998287252
 20
-5679.500000479737
 30
0.0
 11
10778.000005185
 21
-6017.000013660883
 31
0.0
  0
LWPOLYLINE
  5
1852E
330
18394
100
AcDbEntity
  8
SUGATA
 62
     2
100
AcDbPolyline
 90
        4
 70
     0
 43
0.0
 10
10767.99998397017
 20
-6227.00000000001
 10
10774.99998397017
 20
-6227.00000000001
 42
0.4142135623635164
 10
10777.99998397017
 20
-6224.000000000113
 10
10777.99998397212
 20
-6163.500039959206
  0
LWPOLYLINE
  5
1852F
330
18394
100
AcDbEntity
  8
SUGATA
 62
     2
100
AcDbPolyline
 90
        6
 70
     0
 43
0.0
 10
10767.99998397017
 20
-6227.003505086872
 10
10767.99998397017
 20
-6242.000000000011
 10
10777.99998397017
 20
-6242.000000000011
 10
10777.99998397017
 20
-6355.000000000011
 42
-0.4142135618315347
 10
10762.99998399788
 20
-6370.000000000011
 10
10600.74897749097
 20
-6370.000000300027
  0
ARC
  5
18530
330
18394
100
AcDbEntity
  8
SUGATA
 62
     2
100
AcDbCircle
 10
10600.74896915263
 20
-6373.000000000018
 30
0.0
 40
2.999999700001012
100
AcDbArc
 50
90.0
 51
174.9999861203911
  0
LWPOLYLINE
  5
18531
330
18394
100
AcDbEntity
  8
SUGATA
 62
     2
100
AcDbPolyline
 90
        4
 70
     0
 43
0.0
 10
10597.76041695773
 20
-6372.738171850131
 10
10590.08787859113
 20
-6460.435778262112
 42
-0.3888787579497347
 10
10585.10690506117
 20
-6465.00000000001
 10
10546.99998397014
 20
-6465.00000000001
  0
LWPOLYLINE
  5
18532
330
18394
100
AcDbEntity
  8
SUGATA
 62
     2
100
AcDbPolyline
 90
       11
 70
     0
 43
0.0
 10
9699.499983966767
 20
-6465.00000000001
 10
10363.99998397014
 20
-6465.00000000001
 10
10364.15248675747
 20
-6466.743114845126
 42
0.388878731995096
 10
10384.07638072016
 20
-6485.00000000001
 10
10395.49998397017
 20
-6485.00000000001
 10
10395.49998397017
 20
-6500.000000000011
 10
10515.49998397017
 20
-6500.000000000011
 10
10515.49998397017
 20
-6485.00000000001
 10
10526.92358722017
 20
-6485.00000000001
 42
0.388878731995096
 10
10546.84748118287
 20
-6466.743114845126
 10
10546.99998397014
 20
-6465.00000000001
  0
LINE
  5
18533
330
18394
100
AcDbEntity
  8
SUGATA
 62
     3
370
     9
100
AcDbLine
 10
10515.49998397017
 20
-6485.00000000001
 30
0.0
 11
10495.81127271129
 21
-6485.00000000001
 31
0.0
  0
LINE
  5
18534
330
18394
100
AcDbEntity
  8
SUGATA
 62
     3
370
     9
100
AcDbLine
 10
10395.49998397017
 20
-6485.00000000001
 30
0.0
 11
10415.50611182015
 21
-6485.00000000001
 31
0.0
  0
LINE
  5
18535
330
18394
100
AcDbEntity
  8
SUGATA
 62
     3
370
     9
100
AcDbLine
 10
10445.50010114265
 20
-6490.00000000001
 30
0.0
 11
10465.49986679765
 21
-6490.00000000001
 31
0.0
  0
ARC
  5
18536
330
18394
100
AcDbEntity
  8
SUGATA
 62
     3
370
     9
100
AcDbCircle
 10
10455.49998396857
 20
-6334.99999999176
 30
0.0
 40
155.3222456783458
100
AcDbArc
 50
273.6913859872162
 51
303.1785116585834
  0
ARC
  5
18537
330
18394
100
AcDbEntity
  8
SUGATA
 62
     3
370
     9
100
AcDbCircle
 10
10455.49998397017
 20
-6335.000000000025
 30
0.0
 40
155.3222456699963
100
AcDbArc
 50
236.8214883407851
 51
266.3086140136293
  0
LINE
  5
18538
330
18394
100
AcDbEntity
  8
SUGATA
 62
     3
370
     9
100
AcDbLine
 10
10546.99998397014
 20
-6465.00000000001
 30
0.0
 11
10363.99998397014
 21
-6465.00000000001
 31
0.0
  0
ARC
  5
18539
330
18394
100
AcDbEntity
  8
SUGATA
 62
     2
100
AcDbCircle
 10
10742.58332445953
 20
-5104.999995918955
 30
0.0
 40
65.41665862322673
100
AcDbArc
 50
302.7790777499078
 51
42.1645955577821
  0
ARC
  5
1853A
330
18394
100
AcDbEntity
  8
SUGATA
 62
     2
100
AcDbCircle
 10
10760.18748397017
 20
-5587.000000000011
 30
0.0
 40
57.8124999999998
100
AcDbArc
 50
325.2823825159196
 51
72.05474677009229
  0
ARC
  5
1853B
330
18394
100
AcDbEntity
  8
SUGATA
 62
     2
100
AcDbCircle
 10
10757.99998396147
 20
-5633.6742430431
 30
0.0
 40
50.00000001083322
100
AcDbArc
 50
293.5781784837049
 51
0.0005295339275386
  0
LWPOLYLINE
  5
1853C
330
18394
100
AcDbEntity
  8
SUGATA
 62
     2
100
AcDbPolyline
 90
        3
 70
     0
 43
0.0
 10
10807.99998397017
 20
-5633.673780871056
 10
10807.99998397017
 20
-5625.326219115017
 10
10807.70756437391
 20
-5619.92608562631
  0
ARC
  5
1853D
330
18394
100
AcDbEntity
  8
SUGATA
 62
     2
100
AcDbCircle
 10
10742.58331730392
 20
-6071.999999999749
 30
0.0
 40
65.41666666638604
100
AcDbArc
 50
342.2269406675787
 51
57.22090044211913
  0
ARC
  5
1853E
330
18394
100
AcDbEntity
  8
SUGATA
 62
     2
100
AcDbCircle
 10
10757.99989088657
 20
-6117.674222271078
 30
0.0
 40
50.00009290209368
100
AcDbArc
 50
293.578248398199
 51
359.9999761889701
  0
LWPOLYLINE
  5
1853F
330
18394
100
AcDbEntity
  8
SUGATA
 62
     2
100
AcDbPolyline
 90
        3
 70
     0
 43
0.0
 10
10807.99998378865
 20
-6117.674243050013
 10
10807.99982414404
 20
-6109.325756950017
 10
10804.87784444995
 20
-6091.968278978933
  0
LWPOLYLINE
  5
18540
330
18394
100
AcDbEntity
  8
SUGATA
 62
     3
370
     9
100
AcDbPolyline
 90
        4
 70
     0
 43
0.0
 10
10807.70756437391
 20
-5619.926085626353
 10
10803.06950464065
 20
-5603.675391906148
 10
10789.2531302796
 20
-5586.297505544
 10
10777.99998397133
 20
-5575.489684374701
  0
LINE
  5
18541
330
18394
100
AcDbEntity
  8
SUGATA
 62
     3
370
     9
100
AcDbLine
 10
10767.99998397017
 20
-6227.00000000001
 30
0.0
 11
6397.99998397017
 21
-6227.00000000001
 31
0.0
  0
LINE
  5
18542
330
18394
100
AcDbEntity
  8
SUGATA
 62
     2
100
AcDbLine
 10
6947.259597774195
 20
-6475.000000000012
 30
0.0
 11
7101.326995035146
 21
-6475.000000000012
 31
0.0
  0
LINE
  5
18543
330
18394
100
AcDbEntity
  8
SUGATA
 62
     2
100
AcDbLine
 10
9609.499983969037
 20
-6465.00000000001
 30
0.0
 11
9123.687674810069
 21
-6465.000000000099
 31
0.0
  0
LINE
  5
18544
330
18394
100
AcDbEntity
  8
SUGATA
 62
     2
100
AcDbLine
 10
8904.312293130272
 20
-6465.000000000134
 30
0.0
 11
7964.499983971015
 21
-6465.000000000026
 31
0.0
  0
LINE
  5
18545
330
18394
100
AcDbEntity
  8
SUGATA
 62
     2
100
AcDbLine
 10
7818.499983969267
 20
-6465.000000000026
 30
0.0
 11
7775.999983966999
 21
-6465.00000000001
 31
0.0
  0
LINE
  5
18546
330
18394
100
AcDbEntity
  8
SUGATA
 62
     2
100
AcDbLine
 10
7567.689983973548
 20
-6465.000000000026
 30
0.0
 11
7458.510577319808
 21
-6464.999999999779
 31
0.0
  0
LINE
  5
18547
330
18394
100
AcDbEntity
  8
SUGATA
 62
     2
100
AcDbLine
 10
7396.199983970153
 20
-6465.00000000001
 30
0.0
 11
7392.99998397017
 21
-6465.000000000026
 31
0.0
  0
LINE
  5
18548
330
18394
100
AcDbEntity
  8
SUGATA
 62
     2
100
AcDbLine
 10
7352.99998397017
 20
-6465.000000000026
 30
0.0
 11
7345.799983970159
 21
-6465.000000000026
 31
0.0
  0
LWPOLYLINE
  5
18549
330
18394
100
AcDbEntity
  8
SUGATA
 62
     2
100
AcDbPolyline
 90
        6
 70
     0
 43
0.0
 10
7392.99998397017
 20
-6465.000000000026
 10
7392.99998397017
 20
-6469.000000000018
 42
-0.4142135623730618
 10
7389.99998397017
 20
-6472.000000000011
 10
7355.999983970142
 20
-6472.000000000011
 42
-0.4142135623730618
 10
7352.99998397017
 20
-6469.000000000018
 10
7352.99998397017
 20
-6465.000000000026
  0
LWPOLYLINE
  5
1854A
330
18394
100
AcDbEntity
  8
SUGATA
 62
     2
100
AcDbPolyline
 90
        4
 70
     0
 43
0.0
 10
7345.799983970159
 20
-6465.000000000026
 10
7345.799983970159
 20
-6466.000000000018
 10
7302.99998397017
 20
-6466.000000000018
 10
7302.99998397017
 20
-6469.000000000018
  0
LINE
  5
1854B
330
18394
100
AcDbEntity
  8
SUGATA
 62
     2
100
AcDbLine
 10
7299.99998397017
 20
-6472.000000000011
 30
0.0
 11
7298.999983970141
 21
-6472.000000000011
 31
0.0
  0
ARC
  5
1854C
330
18394
100
AcDbEntity
  8
SUGATA
 62
     2
100
AcDbCircle
 10
7299.99998397017
 20
-6469.000000000018
 30
0.0
 40
3.00000000000125
100
AcDbArc
 50
270.0
 51
359.9999999997915
  0
ARC
  5
1854D
330
18394
100
AcDbEntity
  8
SUGATA
 62
     2
100
AcDbCircle
 10
7298.999983970141
 20
-6469.000000000018
 30
0.0
 40
2.999999999998408
100
AcDbArc
 50
180.0
 51
270.0
  0
LWPOLYLINE
  5
1854E
330
18394
100
AcDbEntity
  8
SUGATA
 62
     2
100
AcDbPolyline
 90
        6
 70
     0
 43
0.0
 10
7295.999983970141
 20
-6469.000000000018
 10
7294.464450064239
 20
-6470.535533905956
 42
-0.1989123673797129
 10
7290.928916158279
 20
-6472.000000000011
 10
7248.571051782644
 20
-6472.000000000011
 42
-0.1989123671723772
 10
7245.035517879536
 20
-6470.535533908773
 10
7244.636347606378
 20
-6470.136363636233
  0
LINE
  5
1854F
330
18394
100
AcDbEntity
  8
SUGATA
 62
     2
100
AcDbLine
 10
7123.687674810156
 20
-6465.000000000026
 30
0.0
 11
7237.428916157667
 21
-6465.000000000026
 31
0.0
  0
ARC
  5
18550
330
18394
100
AcDbEntity
  8
SUGATA
 62
     2
100
AcDbCircle
 10
7101.326995035146
 20
-6445.000000000026
 30
0.0
 40
29.99999999999545
100
AcDbArc
 50
270.0
 51
318.1896851041108
  0
LINE
  5
18551
330
18394
100
AcDbEntity
  8
SUGATA
 62
     3
370
     9
100
AcDbLine
 10
7237.428916157667
 20
-6465.000000000026
 30
0.0
 11
7345.799983970159
 21
-6465.000000000026
 31
0.0
  0
LINE
  5
18552
330
18394
100
AcDbEntity
  8
SUGATA
 62
     3
370
     9
100
AcDbLine
 10
7352.99998397017
 20
-6465.000000000026
 30
0.0
 11
7392.99998397017
 21
-6465.000000000026
 31
0.0
  0
LINE
  5
18553
330
18394
100
AcDbEntity
  8
SUGATA
 62
     3
370
     9
100
AcDbLine
 10
7396.199983970153
 20
-6465.00000000001
 30
0.0
 11
7458.510577319808
 21
-6464.999999999779
 31
0.0
  0
LINE
  5
18554
330
18394
100
AcDbEntity
  8
SUGATA
 62
     3
370
     9
100
AcDbLine
 10
7567.689983973548
 20
-6465.00000000001
 30
0.0
 11
7775.999983966999
 21
-6465.000000000026
 31
0.0
  0
LINE
  5
18555
330
18394
100
AcDbEntity
  8
SUGATA
 62
     3
370
     9
100
AcDbLine
 10
7818.499983969267
 20
-6465.00000000001
 30
0.0
 11
7964.499983971015
 21
-6465.00000000001
 31
0.0
  0
LINE
  5
18556
330
18394
100
AcDbEntity
  8
SUGATA
 62
     3
370
     9
100
AcDbLine
 10
8904.312293130272
 20
-6465.000000000134
 30
0.0
 11
9123.687674810069
 21
-6465.000000000099
 31
0.0
  0
LINE
  5
18557
330
18394
100
AcDbEntity
  8
SUGATA
 62
     3
370
     9
100
AcDbLine
 10
9699.499983966767
 20
-6465.00000000001
 30
0.0
 11
9609.499983969037
 21
-6465.00000000001
 31
0.0
  0
LWPOLYLINE
  5
18558
330
18394
100
AcDbEntity
  8
SUGATA
 62
     2
100
AcDbPolyline
 90
        6
 70
     0
 43
0.0
 10
9699.499983966767
 20
-6465.00000000001
 10
9693.964450065287
 20
-6470.535533904865
 42
-0.1989123674594381
 10
9690.428916158278
 20
-6472.000000000011
 10
9618.571051782645
 20
-6472.000000000011
 42
-0.1989123673392531
 10
9615.035517877267
 20
-6470.535533906502
 10
9609.499983969037
 20
-6465.00000000001
  0
ARC
  5
18559
330
18394
100
AcDbEntity
  8
SUGATA
 62
     2
100
AcDbCircle
 10
9101.326995035146
 20
-6445.000000000026
 30
0.0
 40
29.99999999999716
100
AcDbArc
 50
270.0
 51
318.1896851041108
  0
ARC
  5
1855A
330
18394
100
AcDbEntity
  8
SUGATA
 62
     2
100
AcDbCircle
 10
8926.672972905283
 20
-6444.999999999741
 30
0.0
 40
29.99999999999716
100
AcDbArc
 50
221.8103148955428
 51
269.9999999995831
  0
LWPOLYLINE
  5
1855B
330
18394
100
AcDbEntity
  8
SUGATA
 62
     2
100
AcDbPolyline
 90
        6
 70
     0
 43
0.0
 10
7964.499983971015
 20
-6465.000000000026
 10
7958.964450063948
 20
-6470.535533906226
 42
-0.1989123673594768
 10
7955.428916158279
 20
-6472.000000000011
 10
7827.571051782005
 20
-6472.000000000011
 42
-0.1989123673594055
 10
7824.035517876393
 20
-6470.535533906226
 10
7818.499983969267
 20
-6465.000000000026
  0
LWPOLYLINE
  5
1855C
330
18394
100
AcDbEntity
  8
SUGATA
 62
     2
100
AcDbPolyline
 90
        6
 70
     0
 43
0.0
 10
7675.999983973547
 20
-6465.000000000026
 10
7681.535517874997
 20
-6470.535533904865
 42
0.1989123674594258
 10
7685.071051782005
 20
-6472.000000000011
 10
7766.928916157638
 20
-6472.000000000011
 42
0.1989123674392021
 10
7770.464450064413
 20
-6470.535533905135
 10
7775.999983966999
 20
-6465.000000000026
  0
LWPOLYLINE
  5
1855D
330
18394
100
AcDbEntity
  8
SUGATA
 62
     2
100
AcDbPolyline
 90
        6
 70
     0
 43
0.0
 10
7676.803965152337
 20
-6465.909267391023
 10
7672.145555353004
 20
-6470.544384141689
 42
-0.1982610645857034
 10
7668.618893892627
 20
-6472.000000000011
 10
7576.761051782035
 20
-6472.000000000011
 42
-0.1989123674594258
 10
7573.225517874998
 20
-6470.535533904865
 10
7567.689983973548
 20
-6465.000000000026
  0
ARC
  5
1855E
330
18394
100
AcDbEntity
  8
SUGATA
 62
     2
100
AcDbCircle
 10
7457.510603670154
 20
-6465.000026350015
 30
0.0
 40
0.9999736499973778
100
AcDbArc
 50
269.9984902026086
 51
0.0015097975997674
  0
LINE
  5
1855F
330
18394
100
AcDbEntity
  8
SUGATA
 62
     2
100
AcDbLine
 10
7457.510577319895
 20
-6465.999999999661
 30
0.0
 11
7397.199983970152
 21
-6466.000000000018
 31
0.0
  0
ARC
  5
18560
330
18394
100
AcDbEntity
  8
SUGATA
 62
     2
100
AcDbCircle
 10
7397.199983970152
 20
-6465.00000000001
 30
0.0
 40
1.000000000001364
100
AcDbArc
 50
179.9999999997915
 51
270.0
  0
LINE
  5
18561
330
18394
100
AcDbEntity
  8
SUGATA
 62
     3
370
     9
100
AcDbLine
 10
10600.74896915263
 20
-6370.000000300013
 30
0.0
 11
7012.154691992684
 21
-6370.000000000011
 31
0.0
  0
LINE
  5
18562
330
18394
100
AcDbEntity
  8
SUGATA
 62
     3
370
     9
100
AcDbLine
 10
7123.687674810156
 20
-6465.000000000026
 30
0.0
 11
6949.311005631061
 21
-6465.000000000026
 31
0.0
  0
LINE
  5
18563
330
18394
100
AcDbEntity
  8
SUGATA
 62
     3
370
     9
100
AcDbLine
 10
10770.99998397014
 20
-4897.000000000011
 30
0.0
 11
6404.999983970171
 21
-4897.000000000011
 31
0.0
  0
LINE
  5
18564
330
18394
100
AcDbEntity
  8
SUGATA
 62
     3
370
     9
100
AcDbLine
 10
6405.524061762648
 20
-4907.00000000001
 30
0.0
 11
10770.47590617766
 21
-4907.00000000001
 31
0.0
  0
LINE
  5
18565
330
18394
100
AcDbEntity
  8
SUGATA
 62
     3
370
     9
100
AcDbLine
 10
6647.99998397017
 20
-4800.000000000025
 30
0.0
 11
6647.99998397017
 21
-6227.00000000001
 31
0.0
  0
LINE
  5
18566
330
18394
100
AcDbEntity
  8
SUGATA
 62
     3
370
     9
100
AcDbLine
 10
10527.99998397017
 20
-4800.000000000025
 30
0.0
 11
10527.99998397017
 21
-6227.00000000001
 31
0.0
  0
LINE
  5
18567
330
18394
100
AcDbEntity
  8
SUGATA
 62
     3
370
     9
100
AcDbLine
 10
6423.499983970142
 20
-6230.000000000011
 30
0.0
 11
10522.99998397017
 21
-6230.000000000011
 31
0.0
  0
LINE
  5
18568
330
18394
100
AcDbEntity
  8
SUGATA
 62
     3
370
     9
100
AcDbLine
 10
10510.59835370104
 20
-6465.00000000001
 30
0.0
 11
10518.90977645416
 21
-6370.000000293174
 31
0.0
  0
LINE
  5
18569
330
18394
100
AcDbEntity
  8
SUGATA
 62
     3
370
     9
100
AcDbLine
 10
7140.499916640293
 20
-6370.000000010736
 30
0.0
 11
7152.662555702999
 21
-6465.000000000026
 31
0.0
  0
LINE
  5
1856A
330
18394
100
AcDbEntity
  8
SUGATA
 62
     3
370
     9
100
AcDbLine
 10
7078.190812158871
 20
-6465.000000000026
 30
0.0
 11
7065.169840891271
 21
-6370.000000004441
 31
0.0
  0
LWPOLYLINE
  5
1856B
330
18394
100
AcDbEntity
  8
SUGATA
 62
     3
370
     9
100
AcDbPolyline
 90
        7
 70
     0
 43
0.0
 10
6605.846877670156
 20
-6370.000000080024
 10
6603.781813943067
 20
-6369.176123113055
 10
6602.850985117672
 20
-6367.157008075014
 10
6595.833417804366
 20
-6233.109311659271
 10
6595.811889686832
 20
-6232.842990443747
 10
6594.881064897236
 20
-6230.823876886974
 10
6592.816001170148
 20
-6230.000000000011
  0
LINE
  5
1856C
330
18394
100
AcDbEntity
  8
SUGATA
 62
     3
370
     9
100
AcDbLine
 10
6605.846877670156
 20
-6370.000000080024
 30
0.0
 11
6623.84527597516
 21
-6370.000000000011
 31
0.0
  0
ARC
  5
1856D
330
18394
100
AcDbEntity
  8
SUGATA
 62
     3
370
     9
100
AcDbCircle
 10
7050.734464727961
 20
-6354.999987084436
 30
0.0
 40
15.00001291557669
100
AcDbArc
 50
183.0000468118111
 51
269.9999531800204
  0
LWPOLYLINE
  5
1856E
330
18394
100
AcDbEntity
  8
SUGATA
 62
     3
370
     9
100
AcDbPolyline
 90
        5
 70
     0
 43
0.0
 10
7035.755016534364
 20
-6355.785038972342
 10
7030.010573796644
 20
-6246.174677462575
 10
7029.079749124481
 20
-6244.155566134581
 10
7020.299980585297
 20
-6235.82387688752
 10
7013.484234761453
 20
-6233.104670027136
  0
LWPOLYLINE
  5
1856F
330
18394
100
AcDbEntity
  8
SUGATA
 62
     3
370
     9
100
AcDbPolyline
 90
        6
 70
     0
 43
0.0
 10
7065.713895492641
 20
-6370.0000000045
 10
7065.71389548813
 20
-6355.785039342514
 10
7060.011863985136
 20
-6246.983796782519
 10
7050.379092892669
 20
-6237.84289793501
 10
7030.342433365156
 20
-6233.104669720018
 10
6909.996090175184
 20
-6233.104671912519
  0
LINE
  5
18570
330
18394
100
AcDbEntity
  8
SUGATA
 62
     3
370
     9
100
AcDbLine
 10
6320.999983970142
 20
-6145.000000000011
 30
0.0
 11
6397.49998397017
 21
-6145.000000000011
 31
0.0
  0
LWPOLYLINE
  5
18571
330
18394
100
AcDbEntity
  8
SUGATA
 62
     3
370
     9
100
AcDbPolyline
 90
        2
 70
     0
 43
0.0
 10
10791.07205194201
 20
-5061.087357175773
 10
10777.99999491338
 20
-5079.473266447352
  0
LWPOLYLINE
  5
18572
330
18394
100
AcDbEntity
  8
SUGATA
 62
     3
370
     9
100
AcDbPolyline
 90
        4
 70
     0
 43
0.0
 10
10804.87784444995
 20
-6091.968278978933
 10
10789.2520560973
 20
-6070.298163687792
 10
10780.95828590752
 20
-6059.866025842169
 10
10778.00000323821
 20
-6039.531394589492
  0
ARC
  5
18573
330
18394
100
AcDbEntity
  8
SUGATA
 62
     3
370
     9
100
AcDbCircle
 10
10522.99998397014
 20
-6226.999999999996
 30
0.0
 40
3.000000000020008
100
AcDbArc
 50
270.0000000004169
 51
359.9999999995831
  0
LINE
  5
18574
330
18394
100
AcDbEntity
  8
SUGATA
 62
     3
370
     9
100
AcDbLine
 10
10606.99998397014
 20
-6227.00000000001
 30
0.0
 11
10606.99998397014
 21
-6370.000000000011
 31
0.0
  0
LINE
  5
18575
330
18394
100
AcDbEntity
  8
SUGATA
 62
     3
370
     9
100
AcDbLine
 10
10716.49998436962
 20
-6227.00000000001
 30
0.0
 11
10716.49997582764
 21
-6355.000000000011
 31
0.0
  0
ARC
  5
18576
330
18394
100
AcDbEntity
  8
SUGATA
 62
     3
370
     9
100
AcDbCircle
 10
10701.49997582764
 20
-6355.000000000025
 30
0.0
 40
14.99999999999318
100
AcDbArc
 50
270.0196975147336
 51
0.0
  0
LWPOLYLINE
  5
18577
330
18394
100
AcDbEntity
  8
SUGATA
 62
     3
370
     9
100
AcDbPolyline
 90
        6
 70
     0
 43
0.0
 10
6398.018203265158
 20
-6221.238915937512
 10
6370.842976101332
 20
-6219.814722629275
 42
-0.3989595459626194
 10
6367.999983970171
 20
-6216.818834025024
 10
6367.999983970171
 20
-6206.181165975021
 42
-0.3989595459892611
 10
6370.842976101565
 20
-6203.185277370747
 10
6397.49998397017
 20
-6201.788242787447
  0
LINE
  5
18578
330
18394
100
AcDbEntity
  8
SUGATA
 62
     3
370
     9
100
AcDbLine
 10
6444.99998397017
 20
-6337.831532692511
 30
0.0
 11
6444.999979140186
 21
-6259.822099202505
 31
0.0
  0
LINE
  5
18579
330
18394
100
AcDbEntity
  8
SUGATA
 62
     3
370
     9
100
AcDbLine
 10
6524.99998397017
 20
-6313.104118265004
 30
0.0
 11
6524.99998397017
 21
-6259.821600755018
 31
0.0
  0
LINE
  5
1857A
330
18394
100
AcDbEntity
  8
SUGATA
 62
     3
370
     9
100
AcDbLine
 10
6519.999978317653
 20
-6248.399203185018
 30
0.0
 11
6449.99998397017
 21
-6248.399203185018
 31
0.0
  0
LINE
  5
1857B
330
18394
100
AcDbEntity
  8
SUGATA
 62
     3
370
     9
100
AcDbLine
 10
6449.99998397017
 20
-6342.180120702509
 30
0.0
 11
6484.99966494018
 21
-6342.180120702509
 31
0.0
  0
ARC
  5
1857C
330
18394
100
AcDbEntity
  8
SUGATA
 62
     3
370
     9
100
AcDbCircle
 10
6457.755423711621
 20
-6258.580339472301
 30
0.0
 40
12.81595774512933
100
AcDbArc
 50
127.4030253772248
 51
185.5700371895976
  0
ARC
  5
1857D
330
18394
100
AcDbEntity
  8
SUGATA
 62
     3
370
     9
100
AcDbCircle
 10
6512.948777249556
 20
-6258.237870716392
 30
0.0
 40
12.10449566465245
100
AcDbArc
 50
354.4088419615938
 51
54.37149249694829
  0
ARC
  5
1857E
330
18394
100
AcDbEntity
  8
SUGATA
 62
     3
370
     9
100
AcDbCircle
 10
6500.078080450657
 20
-6314.029355184215
 30
0.0
 40
24.93907252467611
100
AcDbArc
 50
298.1085046589121
 51
2.126155213342114
  0
ARC
  5
1857F
330
18394
100
AcDbEntity
  8
SUGATA
 62
     3
370
     9
100
AcDbCircle
 10
6486.408389615717
 20
-6286.758403900716
 30
0.0
 40
55.43962517205699
100
AcDbArc
 50
268.5439535987917
 51
297.2909244496959
  0
ARC
  5
18580
330
18394
100
AcDbEntity
  8
SUGATA
 62
     3
370
     9
100
AcDbCircle
 10
6449.642528929842
 20
-6337.542331702392
 30
0.0
 40
4.651543928139188
100
AcDbArc
 50
183.5645562513665
 51
274.4073273240996
  0
ARC
  5
18581
330
18394
100
AcDbEntity
  8
SUGATA
 62
     2
100
AcDbCircle
 10
7234.832492508758
 20
-6476.268321187188
 30
0.0
 40
11.56358413908345
100
AcDbArc
 50
32.02449302971678
 51
77.02449305725171
  0
LWPOLYLINE
  5
18582
330
18394
100
AcDbEntity
  8
SUGATA
 62
     2
100
AcDbPolyline
 90
        8
 70
     0
 43
0.0
 10
5840.999985067822
 20
-6273.500000000018
 10
5840.999985067822
 20
-6380.000000000025
 10
5580.999985067822
 20
-6380.000000000011
 10
5572.999985067821
 20
-6372.000000000011
 10
5572.999985067821
 20
-4898.000000000018
 10
5580.999985067822
 20
-4890.000000000025
 10
5840.999985067822
 20
-4890.000000000025
 10
5840.999985067822
 20
-4996.500000000018
  0
LINE
  5
18583
330
18394
100
AcDbEntity
  8
SUGATA
 62
     3
370
     9
100
AcDbLine
 10
6290.999985067822
 20
-5135.000000000011
 30
0.0
 11
6290.999985067822
 21
-6135.000000000011
 31
0.0
  0
LINE
  5
18584
330
18394
100
AcDbEntity
  8
SUGATA
 62
     3
370
     9
100
AcDbLine
 10
6270.999985067821
 20
-6310.000000000011
 30
0.0
 11
6270.999985067821
 21
-4960.000000000011
 31
0.0
  0
LINE
  5
18585
330
18394
100
AcDbEntity
  8
SUGATA
 62
     3
370
     9
100
AcDbLine
 10
6260.999985067821
 20
-4960.000000000011
 30
0.0
 11
6260.999985067821
 21
-6310.000000000011
 31
0.0
  0
LINE
  5
18586
330
18394
100
AcDbEntity
  8
SUGATA
 62
     3
370
     9
100
AcDbLine
 10
6030.999985067822
 20
-4996.500000000018
 30
0.0
 11
6030.999985067822
 21
-6273.500000000018
 31
0.0
  0
LWPOLYLINE
  5
18587
330
18394
100
AcDbEntity
  8
SUGATA
 62
     2
100
AcDbPolyline
 90
        6
 70
     0
 43
0.0
 10
6320.999985067821
 20
-5135.000000000011
 10
6290.999985067822
 20
-5135.000000000011
 10
6290.999985067822
 20
-4960.000000000011
 10
6260.999985067821
 20
-4960.000000000011
 10
6030.999985067822
 20
-4972.000000000011
 10
6030.999985067822
 20
-4996.500000000018
  0
LWPOLYLINE
  5
18588
330
18394
100
AcDbEntity
  8
SUGATA
 62
     2
100
AcDbPolyline
 90
        6
 70
     0
 43
0.0
 10
6030.999985067822
 20
-6273.500000000018
 10
6030.999985067822
 20
-6298.000000000018
 10
6260.999985067821
 20
-6310.000000000011
 10
6290.999985067822
 20
-6310.000000000011
 10
6290.999985067822
 20
-6135.000000000011
 10
6320.999985067821
 20
-6135.000000000011
  0
CIRCLE
  5
18589
330
18394
100
AcDbEntity
  8
SUGATA
 62
     3
370
     9
100
AcDbCircle
 10
5706.061280098168
 20
-5635.000000000011
 30
0.0
 40
16.0073738382357
  0
CIRCLE
  5
1858A
330
18394
100
AcDbEntity
  8
SUGATA
 62
     3
370
     9
100
AcDbCircle
 10
5706.061280098168
 20
-5635.000000000011
 30
0.0
 40
10.00460864889874
  0
LINE
  5
1858B
330
18394
100
AcDbEntity
  8
SUGATA
 62
     3
370
     9
100
AcDbLine
 10
5840.999985067822
 20
-6273.500000000018
 30
0.0
 11
5840.999985067822
 21
-4996.500000000018
 31
0.0
  0
LINE
  5
1858C
330
18394
100
AcDbEntity
  8
SUGATA
 62
     3
370
     9
100
AcDbLine
 10
5980.999985067821
 20
-6250.000000000025
 30
0.0
 11
5980.999985067821
 21
-5020.000000000026
 31
0.0
  0
LINE
  5
1858D
330
18394
100
AcDbEntity
  8
SUGATA
 62
     3
370
     9
100
AcDbLine
 10
6005.999985067822
 20
-6250.000000000025
 30
0.0
 11
6005.999985067822
 21
-5020.000000000026
 31
0.0
  0
LWPOLYLINE
  5
1858E
330
18394
100
AcDbEntity
  8
SUGATA
 62
     2
100
AcDbPolyline
 90
        6
 70
     0
 43
0.0
 10
5840.999985067822
 20
-4996.500000000018
 10
5980.999985067821
 20
-4996.500000000018
 10
5980.999985067821
 20
-5020.000000000026
 10
6005.999985067822
 20
-5020.000000000026
 10
6005.999985067822
 20
-4996.500000000018
 10
6030.999985067822
 20
-4996.500000000018
  0
LWPOLYLINE
  5
1858F
330
18394
100
AcDbEntity
  8
SUGATA
 62
     2
100
AcDbPolyline
 90
        6
 70
     0
 43
0.0
 10
5840.999985067822
 20
-6273.500000000018
 10
5980.999985067821
 20
-6273.500000000018
 10
5980.999985067821
 20
-6250.000000000025
 10
6005.999985067822
 20
-6250.000000000025
 10
6005.999985067822
 20
-6273.500000000018
 10
6030.999985067822
 20
-6273.500000000018
  0
ENDBLK
  5
18593
330
18394
100
AcDbEntity
  8
0
100
AcDbBlockEnd
  0
ENDSEC
  0
SECTION
  2
ENTITIES
  0
LWPOLYLINE
  5
795
330
1D1
100
AcDbEntity
  8
WAKU
 62
     5
100
AcDbPolyline
 90
        4
 70
     1
 43
0.0
 10
1000.0
 20
2500.0
 10
27000.0
 20
2499.999999999975
 10
27000.00000000001
 20
39999.99999999997
 10
1000.000000000007
 20
40000.0
  0
LINE
  5
798
330
1D1
100
AcDbEntity
  8
WAKU
100
AcDbLine
 10
1000.000000000001
 20
39199.99999999999
 30
0.0
 11
27000.00000000001
 21
39199.99999999997
 31
0.0
  0
LINE
  5
799
330
1D1
100
AcDbEntity
  8
WAKU
100
AcDbLine
 10
14000.0
 20
40000.0
 30
0.0
 11
14000.0
 21
2500.000000000026
 31
0.0
  0
LINE
  5
7A1
330
1D1
100
AcDbEntity
  8
WAKU
100
AcDbLine
 10
3000.000000000007
 20
39999.99999999993
 30
0.0
 11
3000.000000000007
 21
39199.99999999993
 31
0.0
  0
TEXT
  5
7A3
330
1D1
100
AcDbEntity
  8
MOJI
100
AcDbText
 10
4594.714285714313
 20
38699.99999999979
 30
0.0
 40
300.0
  1
CP-WU9100WJ（白）/BJ（黒）_USL-901A
 72
     2
 11
13469.00000000003
 21
38699.99999999979
 31
0.0
100
AcDbText
  0
LINE
  5
7A9
330
1D1
100
AcDbEntity
  8
WAKU
100
AcDbLine
 10
16000.0
 20
39999.99999999993
 30
0.0
 11
16000.0
 21
39199.99999999993
 31
0.0
  0
INSERT
  5
18594
330
1D1
100
AcDbEntity
  8
0
100
AcDbBlockReference
  2
CP-WU9100WJ／9100BJ_STANDARD_SET_USL-901
 10
3000.000000000007
 20
39199.99999999993
 30
0.0
  0
VIEWPORT
  5
267
102
{ACAD_XDICTIONARY
360
185C3
102
}
330
1CE
100
AcDbEntity
 67
     1
  8
0
100
AcDbViewport
 10
4.799458060677594
 20
4.021899493660513
 30
0.0
 40
15.18097292506427
 41
8.992999745766947
 68
     1
 69
     1
 12
4.799458060677594
 22
4.021899493660513
 13
0.0
 23
0.0
 14
10.0
 24
10.0
 15
10.0
 25
10.0
 16
0.0
 26
0.0
 36
1.0
 17
0.0
 27
0.0
 37
0.0
 42
50.0
 43
0.0
 44
0.0
 45
8.992999745766947
 50
0.0
 51
0.0
 72
   100
 90
    32800
  1

281
     0
 71
     1
 74
     0
110
0.0
120
0.0
130
0.0
111
1.0
121
0.0
131
0.0
112
0.0
122
1.0
132
0.0
 79
     0
146
0.0
  0
VIEWPORT
  5
269
102
{ACAD_XDICTIONARY
360
185C5
102
}
330
1CE
100
AcDbEntity
 67
     1
  8
0
100
AcDbViewport
 10
4.799458285954992
 20
4.021899549979862
 30
0.0
 40
7.679133257527987
 41
6.43503927996778
 68
     2
 69
     2
 12
39750.0
 22
29000.00000000002
 13
0.0
 23
0.0
 14
50.0
 24
50.0
 15
500.0
 25
500.0
 16
0.0
 26
0.0
 36
1.0
 17
0.0
 27
0.0
 37
0.0
 42
50.0
 43
0.0
 44
0.0
 45
66084.1625295915
 50
0.0
 51
0.0
 72
   100
 90
    33024
  1

281
     0
 71
     1
 74
     0
110
0.0
120
0.0
130
0.0
111
1.0
121
0.0
131
0.0
112
0.0
122
1.0
132
0.0
 79
     0
146
0.0
  0
ENDSEC
  0
SECTION
  2
OBJECTS
  0
DICTIONARY
  5
1C6
330
0
100
AcDbDictionary
281
     1
  3
ACAD_CIP_PREVIOUS_PRODUCT_INFO
350
B423
  3
ACAD_COLOR
350
3CD5
  3
ACAD_DETAILVIEWSTYLE
350
B41B
  3
ACAD_GROUP
350
1C7
  3
ACAD_LAYOUT
350
25D
  3
ACAD_MATERIAL
350
3CD4
  3
ACAD_MLEADERSTYLE
350
9E30
  3
ACAD_MLINESTYLE
350
1D4
  3
ACAD_PLOTSETTINGS
350
25E
  3
ACAD_PLOTSTYLENAME
350
25B
  3
ACAD_SCALELIST
350
9E0E
  3
ACAD_SECTIONVIEWSTYLE
350
B418
  3
ACAD_TABLESTYLE
350
3CD6
  3
ACAD_VISUALSTYLE
350
9DFD
  3
ACDB_RECOMPOSE_DATA
350
185B6
  3
ACDBVARIABLEDICTIONARY
350
244
  3
AcDsDecomposeData
350
185BD
  3
AEC_PROPERTY_SET_DEFS
350
C45A
  3
DWGPROPS
350
185B7
  0
DICTIONARY
  5
9E49
330
1C2
100
AcDbDictionary
280
     1
281
     1
  0
DICTIONARY
  5
A9B
330
1BC
100
AcDbDictionary
280
     1
281
     1
  3
ACAD_LAYERFILTERS
360
5399
  3
ACAD_LAYERSTATES
360
594C
  3
ACLYDICTIONARY
360
5398
  0
DICTIONARY
  5
9E3A
330
1C8
100
AcDbDictionary
280
     1
281
     1
  3
ADSK_XREC_LAYER_RECONCILED
360
9E3B
  0
DICTIONARY
  5
9E3C
330
204
100
AcDbDictionary
280
     1
281
     1
  3
ADSK_XREC_LAYER_RECONCILED
360
9E3D
  0
DICTIONARY
  5
9E3E
330
205
100
AcDbDictionary
280
     1
281
     1
  3
ADSK_XREC_LAYER_RECONCILED
360
9E3F
  0
DICTIONARY
  5
1838B
330
1838A
100
AcDbDictionary
280
     1
281
     1
  0
DICTIONARY
  5
1838D
330
1838C
100
AcDbDictionary
280
     1
281
     1
  0
DICTIONARY
  5
1838F
330
1838E
100
AcDbDictionary
280
     1
281
     1
  0
DICTIONARY
  5
18391
330
18390
100
AcDbDictionary
280
     1
281
     1
  0
DICTIONARY
  5
295
330
1D1
100
AcDbDictionary
280
     1
281
     1
  3
ACAD_LAYOUTSELFREF
360
38C0
  0
DICTIONARY
  5
293
330
1CE
100
AcDbDictionary
280
     1
281
     1
  3
ACAD_LAYOUTSELFREF
360
38BF
  0
DICTIONARY
  5
18590
330
18394
100
AcDbDictionary
280
     1
281
     1
  3
ACAD_SORTENTS
360
18591
  0
DICTIONARY
  5
185C3
330
267
100
AcDbDictionary
280
     1
281
     1
  3
ACAD_XREC_ROUNDTRIP
360
185C4
  0
DICTIONARY
  5
185C5
330
269
100
AcDbDictionary
280
     1
281
     1
  3
ACAD_XREC_ROUNDTRIP
360
185C6
  0
XRECORD
  5
B423
102
{ACAD_REACTORS
330
1C6
102
}
330
1C6
100
AcDbXrecord
280
     1
300
ACDLT
300
2018
300
ACDLT_F_S
  0
DICTIONARY
  5
3CD5
102
{ACAD_REACTORS
330
1C6
102
}
330
1C6
100
AcDbDictionary
281
     1
  0
DICTIONARY
  5
B41B
102
{ACAD_REACTORS
330
1C6
102
}
330
1C6
100
AcDbDictionary
281
     1
  3
Imperial24
350
B41C
  3
Metric50
350
18393
  0
DICTIONARY
  5
1C7
102
{ACAD_REACTORS
330
1C6
102
}
330
1C6
100
AcDbDictionary
281
     1
  0
DICTIONARY
  5
25D
102
{ACAD_REACTORS
330
1C6
102
}
330
1C6
100
AcDbDictionary
281
     1
  3
Model
350
25F
  3
ﾚｲｱｳﾄ1
350
260
  0
DICTIONARY
  5
3CD4
102
{ACAD_REACTORS
330
1C6
102
}
330
1C6
100
AcDbDictionary
281
     1
  3
ByBlock
350
9DED
  3
ByLayer
350
9DE5
  3
Global
350
9DF5
  0
DICTIONARY
  5
9E30
102
{ACAD_REACTORS
330
1C6
102
}
330
1C6
100
AcDbDictionary
281
     1
  3
Standard
350
9E31
  0
DICTIONARY
  5
1D4
102
{ACAD_REACTORS
330
1C6
102
}
330
1C6
100
AcDbDictionary
281
     1
  3
STANDARD
350
1D5
  0
DICTIONARY
  5
25E
102
{ACAD_REACTORS
330
1C6
102
}
330
1C6
100
AcDbDictionary
281
     1
  0
ACDBDICTIONARYWDFLT
  5
25B
102
{ACAD_REACTORS
330
1C6
102
}
330
1C6
100
AcDbDictionary
281
     1
  3
Normal
350
25C
100
AcDbDictionaryWithDefault
340
25C
  0
DICTIONARY
  5
9E0E
102
{ACAD_REACTORS
330
1C6
102
}
330
1C6
100
AcDbDictionary
281
     1
  3
A0
350
9E0F
  3
A1
350
9E10
  3
A2
350
9E11
  3
A3
350
9E12
  3
A4
350
9E13
  3
A5
350
9E14
  3
A6
350
9E15
  3
A7
350
9E16
  3
A8
350
9E17
  3
A9
350
9E18
  3
B0
350
9E19
  3
B1
350
9E1A
  3
B2
350
9E1B
  3
B3
350
9E1C
  3
B4
350
9E1D
  3
B5
350
9E1E
  3
B6
350
9E1F
  3
B7
350
9E20
  3
B8
350
9E21
  3
B9
350
9E22
  3
C0
350
9E23
  3
C1
350
9E24
  3
C2
350
9E25
  3
C3
350
9E26
  3
C4
350
9E27
  3
C5
350
9E28
  3
C6
350
9E29
  3
C7
350
9E2A
  3
C8
350
9E2B
  3
C9
350
9E2C
  3
D0
350
9E2D
  3
D1
350
9E2E
  3
D2
350
9E2F
  0
DICTIONARY
  5
B418
102
{ACAD_REACTORS
330
1C6
102
}
330
1C6
100
AcDbDictionary
281
     1
  3
Imperial24
350
B41A
  3
Metric50
350
18392
  0
DICTIONARY
  5
3CD6
102
{ACAD_REACTORS
330
1C6
102
}
330
1C6
100
AcDbDictionary
281
     1
  3
Standard
350
3CD7
  0
DICTIONARY
  5
9DFD
102
{ACAD_REACTORS
330
1C6
102
}
330
1C6
100
AcDbDictionary
281
     1
  3
2dWireframe
350
9E03
  3
3D Hidden
350
9E05
  3
3dWireframe
350
9E04
  3
Basic
350
9E02
  3
Brighten
350
9E09
  3
ColorChange
350
9E0D
  3
Conceptual
350
9E06
  3
Dim
350
9E08
  3
EdgeColorOff
350
B417
  3
Facepattern
350
9E0C
  3
Flat
350
9DFE
  3
FlatWithEdges
350
9DFF
  3
Gouraud
350
9E00
  3
GouraudWithEdges
350
9E01
  3
Hidden
350
B40F
  3
JitterOff
350
B415
  3
Linepattern
350
9E0B
  3
OverhangOff
350
B416
  3
Realistic
350
9E07
  3
Shaded
350
B414
  3
Shaded with edges
350
B413
  3
Shades of Gray
350
B410
  3
Sketchy
350
B411
  3
Thicken
350
9E0A
  3
Wireframe
350
B40E
  3
X-Ray
350
B412
  0
XRECORD
  5
185B6
102
{ACAD_REACTORS
330
1C6
102
}
330
1C6
100
AcDbXrecord
280
     1
 90
        1
330
3CD7
  0
DICTIONARY
  5
244
102
{ACAD_REACTORS
330
1C6
102
}
330
1C6
100
AcDbDictionary
281
     1
  3
CANNOSCALE
350
9E98
  3
CMLEADERSTYLE
350
9E97
  3
CTABLESTYLE
350
3CE5
  3
CVIEWDETAILSTYLE
350
B4BA
  3
CVIEWSECTIONSTYLE
350
B4BB
  3
DIMADEC
350
245
  3
DIMASSOC
350
3CE6
  3
INDEXCTL
350
185B3
  3
LAYEREVAL
350
C4A1
  3
LAYERNOTIFY
350
C4A2
  3
LIGHTINGUNITS
350
C4A0
  3
MSLTSCALE
350
C49F
  3
PROJECTNAME
350
3CE7
  3
SORTENTS
350
185B2
  3
XCLIPFRAME
350
185B4
  0
DICTIONARY
  5
185BD
102
{ACAD_REACTORS
330
1C6
102
}
330
1C6
100
AcDbDictionary
281
     1
  3
AcDsRecords
350
185BF
  3
AcDsSchemas
350
185BE
1001
ACAD
1070
     2
  0
DICTIONARY
  5
C45A
102
{ACAD_REACTORS
330
1C6
102
}
330
1C6
100
AcDbDictionary
281
     1
  0
XRECORD
  5
185B7
102
{ACAD_REACTORS
330
1C6
102
}
330
1C6
100
AcDbXrecord
280
     1
  1
DWGPROPS COOKIE
  2

  3

  4

  6

  7

  8
ipc-0034
  9

300
=
301
=
302
=
303
=
304
=
305
=
306
=
307
=
308
=
309
=
 40
0.1265827546296296
 41
2451800.480034722
 42
2458361.362685185
  1

 90
        0
  0
DICTIONARY
  5
5399
102
{ACAD_REACTORS
330
A9B
102
}
330
A9B
100
AcDbDictionary
281
     1
  0
DICTIONARY
  5
594C
102
{ACAD_REACTORS
330
A9B
102
}
330
A9B
100
AcDbDictionary
281
     1
  0
DICTIONARY
  5
5398
102
{ACAD_REACTORS
330
A9B
102
}
330
A9B
100
AcDbDictionary
281
     1
1001
ACAD
1000
<All
  0
XRECORD
  5
9E3B
102
{ACAD_REACTORS
330
9E3A
102
}
330
9E3A
100
AcDbXrecord
280
     1
290
     1
  0
XRECORD
  5
9E3D
102
{ACAD_REACTORS
330
9E3C
102
}
330
9E3C
100
AcDbXrecord
280
     1
290
     1
  0
XRECORD
  5
9E3F
102
{ACAD_REACTORS
330
9E3E
102
}
330
9E3E
100
AcDbXrecord
280
     1
290
     1
  0
XRECORD
  5
38C0
102
{ACAD_REACTORS
330
295
102
}
330
295
100
AcDbXrecord
280
     1
340
1D1
  0
XRECORD
  5
38BF
102
{ACAD_REACTORS
330
293
102
}
330
293
100
AcDbXrecord
280
     1
340
1CE
  0
SORTENTSTABLE
  5
18591
102
{ACAD_REACTORS
330
18590
102
}
330
18590
100
AcDbSortentsTable
330
18394
  0
XRECORD
  5
185C4
102
{ACAD_REACTORS
330
185C3
102
}
330
185C3
100
AcDbXrecord
280
     1
102
SHADEPLOT
 70
     0
  0
XRECORD
  5
185C6
102
{ACAD_REACTORS
330
185C5
102
}
330
185C5
100
AcDbXrecord
280
     1
102
SHADEPLOT
 70
     0
  0
ACDBDETAILVIEWSTYLE
  5
B41C
102
{ACAD_XDICTIONARY
360
18601
102
}
102
{ACAD_REACTORS
330
B41B
102
}
330
B41B
100
AcDbModelDocViewStyle
 70
     0
  3
Imperial24
290
     0
100
AcDbDetailViewStyle
 70
     0
 71
     0
 90
        3
 71
     1
340
1C9
 40
0.24
340
0
 40
0.24
300

 40
0.36
280
     3
 71
     2
340
1CD
 90
       25
 71
     3
340
1C9
 40
0.24
 90
        1
 40
0.75
 90
        1
300
%<\AcVar ViewType \f "%tc1">% %<\AcVar ViewDetailId>%\PSCALE %<\AcVar ViewScale \f "%sn">%
 71
     4
340
1CD
 90
       25
340
1CD
 90
       25
280
     0
  0
ACDBDETAILVIEWSTYLE
  5
18393
102
{ACAD_XDICTIONARY
360
18605
102
}
102
{ACAD_REACTORS
330
B41B
102
}
330
B41B
100
AcDbModelDocViewStyle
 70
     0
  3
Metric50
290
     0
100
AcDbDetailViewStyle
 70
     0
 71
     0
 90
        3
 71
     1
340
1C9
 40
5.0
340
0
 40
5.0
300

 40
0.0
280
     1
 71
     2
340
1CD
 90
       25
 71
     3
340
1C9
 40
5.0
 90
        0
 40
15.0
 90
        1
300
%<\AcVar ViewDetailId>% (%<\AcVar ViewScale \f "%sn">%)
 71
     4
340
1CD
 90
       25
340
1CD
 90
       25
280
     0
  0
LAYOUT
  5
25F
102
{ACAD_XDICTIONARY
360
B47C
102
}
102
{ACAD_REACTORS
330
25D
102
}
330
25D
100
AcDbPlotSettings
  1

  2
Adobe PDF
  4
A4
  6
0
 40
3.174999952316284
 41
3.174999952316284
 42
3.175003051757812
 43
3.17498779296875
 44
209.9098358154297
 45
297.0318298339844
 46
1.005267582129249
 47
0.0
 48
0.0
 49
0.0
140
0.0
141
0.0
142
1.0
143
129.0196244617736
 70
 11956
 72
     1
 73
     0
 74
     1
  7
monochrome.ctb
 75
     0
147
0.007750758880067
148
-998.3689057621742
149
-2498.108010853306
100
AcDbLayout
  1
Model
 70
     1
 71
     0
 10
0.0
 20
0.0
 11
12.0
 21
9.0
 12
0.0
 22
0.0
 32
0.0
 14
0.0
 24
0.0
 34
0.0
 15
0.0
 25
0.0
 35
0.0
146
0.0
 13
0.0
 23
0.0
 33
0.0
 16
1.0
 26
0.0
 36
0.0
 17
0.0
 27
1.0
 37
0.0
 76
     0
330
1D1
331
9DE3
1001
ACAD_PSEXT
1000
Adobe PDF
1000
Adobe PDF Converter
1000
Documents\*.pdf
1000

1070
     0
  0
LAYOUT
  5
260
102
{ACAD_XDICTIONARY
360
185C1
102
}
102
{ACAD_REACTORS
330
25D
102
}
330
25D
100
AcDbPlotSettings
  1

  2
C:\PROGRAM FILES\ACAD LT 2000\plotters\DWF ePlot.pc3
  4
ANSI_A_(8.50_x_11.00_Inches)
  6

 40
5.793749809265136
 41
17.79375076293945
 42
5.793746948242187
 43
17.79376220703125
 44
215.8999938964844
 45
279.3999938964844
 46
0.0
 47
0.0
 48
0.0
 49
0.0
140
0.0
141
0.0
142
1.0
143
1.0
 70
   688
 72
     0
 73
     1
 74
     5
  7
monochrome.ctb
 75
    16
147
1.0
148
0.0
149
0.0
100
AcDbLayout
  1
ﾚｲｱｳﾄ1
 70
     0
 71
     1
 10
-0.7005418191744587
 20
-0.2281003861915408
 11
10.29945794052965
 21
8.271899373512567
 12
0.0
 22
0.0
 32
0.0
 14
0.9598916571909988
 24
0.8043799099959727
 34
0.0
 15
8.639024914718985
 25
7.239419189963752
 35
0.0
146
0.0
 13
0.0
 23
0.0
 33
0.0
 16
1.0
 26
0.0
 36
0.0
 17
0.0
 27
1.0
 37
0.0
 76
     0
330
1CE
331
267
  0
MATERIAL
  5
9DED
102
{ACAD_XDICTIONARY
360
9DEE
102
}
102
{ACAD_REACTORS
330
3CD4
102
}
330
3CD4
100
AcDbMaterial
  1
ByBlock
 72
     0
 43
0.0208333333333333
 43
0.0
 43
0.0
 43
0.0
 43
0.0
 43
0.0208333333333333
 43
0.0
 43
0.0
 43
0.0
 43
0.0
 43
1.0
 43
0.0
 43
0.0
 43
0.0
 43
0.0
 43
1.0
 77
     0
 47
0.0208333333333333
 47
0.0
 47
0.0
 47
0.0
 47
0.0
 47
0.0208333333333333
 47
0.0
 47
0.0
 47
0.0
 47
0.0
 47
1.0
 47
0.0
 47
0.0
 47
0.0
 47
0.0
 47
1.0
171
     0
 49
0.0208333333333333
 49
0.0
 49
0.0
 49
0.0
 49
0.0
 49
0.0208333333333333
 49
0.0
 49
0.0
 49
0.0
 49
0.0
 49
1.0
 49
0.0
 49
0.0
 49
0.0
 49
0.0
 49
1.0
175
     0
142
0.0208333333333333
142
0.0
142
0.0
142
0.0
142
0.0
142
0.0208333333333333
142
0.0
142
0.0
142
0.0
142
0.0
142
1.0
142
0.0
142
0.0
142
0.0
142
0.0
142
1.0
179
     0
144
0.0208333333333333
144
0.0
144
0.0
144
0.0
144
0.0
144
0.0208333333333333
144
0.0
144
0.0
144
0.0
144
0.0
144
1.0
144
0.0
144
0.0
144
0.0
144
0.0
144
1.0
147
0.0208333333333333
147
0.0
147
0.0
147
0.0
147
0.0
147
0.0208333333333333
147
0.0
147
0.0
147
0.0
147
0.0
147
1.0
147
0.0
147
0.0
147
0.0
147
0.0
147
1.0
  0
MATERIAL
  5
9DE5
102
{ACAD_XDICTIONARY
360
9DE6
102
}
102
{ACAD_REACTORS
330
3CD4
102
}
330
3CD4
100
AcDbMaterial
  1
ByLayer
 72
     0
 43
0.0208333333333333
 43
0.0
 43
0.0
 43
0.0
 43
0.0
 43
0.0208333333333333
 43
0.0
 43
0.0
 43
0.0
 43
0.0
 43
1.0
 43
0.0
 43
0.0
 43
0.0
 43
0.0
 43
1.0
 77
     0
 47
0.0208333333333333
 47
0.0
 47
0.0
 47
0.0
 47
0.0
 47
0.0208333333333333
 47
0.0
 47
0.0
 47
0.0
 47
0.0
 47
1.0
 47
0.0
 47
0.0
 47
0.0
 47
0.0
 47
1.0
171
     0
 49
0.0208333333333333
 49
0.0
 49
0.0
 49
0.0
 49
0.0
 49
0.0208333333333333
 49
0.0
 49
0.0
 49
0.0
 49
0.0
 49
1.0
 49
0.0
 49
0.0
 49
0.0
 49
0.0
 49
1.0
175
     0
142
0.0208333333333333
142
0.0
142
0.0
142
0.0
142
0.0
142
0.0208333333333333
142
0.0
142
0.0
142
0.0
142
0.0
142
1.0
142
0.0
142
0.0
142
0.0
142
0.0
142
1.0
179
     0
144
0.0208333333333333
144
0.0
144
0.0
144
0.0
144
0.0
144
0.0208333333333333
144
0.0
144
0.0
144
0.0
144
0.0
144
1.0
144
0.0
144
0.0
144
0.0
144
0.0
144
1.0
147
0.0208333333333333
147
0.0
147
0.0
147
0.0
147
0.0
147
0.0208333333333333
147
0.0
147
0.0
147
0.0
147
0.0
147
1.0
147
0.0
147
0.0
147
0.0
147
0.0
147
1.0
  0
MATERIAL
  5
9DF5
102
{ACAD_XDICTIONARY
360
9DF6
102
}
102
{ACAD_REACTORS
330
3CD4
102
}
330
3CD4
100
AcDbMaterial
  1
Global
 72
     0
 43
0.0208333333333333
 43
0.0
 43
0.0
 43
0.0
 43
0.0
 43
0.0208333333333333
 43
0.0
 43
0.0
 43
0.0
 43
0.0
 43
1.0
 43
0.0
 43
0.0
 43
0.0
 43
0.0
 43
1.0
 77
     0
 47
0.0208333333333333
 47
0.0
 47
0.0
 47
0.0
 47
0.0
 47
0.0208333333333333
 47
0.0
 47
0.0
 47
0.0
 47
0.0
 47
1.0
 47
0.0
 47
0.0
 47
0.0
 47
0.0
 47
1.0
171
     0
 49
0.0208333333333333
 49
0.0
 49
0.0
 49
0.0
 49
0.0
 49
0.0208333333333333
 49
0.0
 49
0.0
 49
0.0
 49
0.0
 49
1.0
 49
0.0
 49
0.0
 49
0.0
 49
0.0
 49
1.0
175
     0
142
0.0208333333333333
142
0.0
142
0.0
142
0.0
142
0.0
142
0.0208333333333333
142
0.0
142
0.0
142
0.0
142
0.0
142
1.0
142
0.0
142
0.0
142
0.0
142
0.0
142
1.0
179
     0
144
0.0208333333333333
144
0.0
144
0.0
144
0.0
144
0.0
144
0.0208333333333333
144
0.0
144
0.0
144
0.0
144
0.0
144
1.0
144
0.0
144
0.0
144
0.0
144
0.0
144
1.0
147
0.0208333333333333
147
0.0
147
0.0
147
0.0
147
0.0
147
0.0208333333333333
147
0.0
147
0.0
147
0.0
147
0.0
147
1.0
147
0.0
147
0.0
147
0.0
147
0.0
147
1.0
  0
MLEADERSTYLE
  5
9E31
102
{ACAD_REACTORS
330
9E30
102
}
330
9E30
100
AcDbMLeaderStyle
170
     2
171
     1
172
     0
 90
        2
 40
0.0
 41
0.0
173
     1
 91
-1056964608
340
1CB
 92
       -2
290
     1
 42
0.09
291
     1
 43
0.36
  3
Standard
 44
0.18
300

342
1C9
174
     1
178
     6
175
     1
176
     0
 93
-1056964608
 45
0.18
292
     0
297
     0
 46
0.18
 94
-1056964608
 47
1.0
 49
1.0
140
1.0
293
     1
141
0.0
294
     1
177
     0
142
1.0
295
     0
296
     0
143
0.125
1001
ACAD_MLEADERVER
1070
     2
  0
MLINESTYLE
  5
1D5
102
{ACAD_REACTORS
330
1D4
102
}
330
1D4
100
AcDbMlineStyle
  2
STANDARD
 70
     0
  3

 62
   256
 51
90.0
 52
90.0
 71
     2
 49
0.5
 62
   256
  6
BYLAYER
 49
-0.5
 62
   256
  6
BYLAYER
  0
ACDBPLACEHOLDER
  5
25C
102
{ACAD_REACTORS
330
25B
102
}
330
25B
  0
SCALE
  5
9E0F
102
{ACAD_REACTORS
330
9E0E
102
}
330
9E0E
100
AcDbScale
 70
     0
300
1:1
140
1.0
141
1.0
290
     1
  0
SCALE
  5
9E10
102
{ACAD_REACTORS
330
9E0E
102
}
330
9E0E
100
AcDbScale
 70
     0
300
1:2
140
1.0
141
2.0
290
     0
  0
SCALE
  5
9E11
102
{ACAD_REACTORS
330
9E0E
102
}
330
9E0E
100
AcDbScale
 70
     0
300
1:4
140
1.0
141
4.0
290
     0
  0
SCALE
  5
9E12
102
{ACAD_REACTORS
330
9E0E
102
}
330
9E0E
100
AcDbScale
 70
     0
300
1:5
140
1.0
141
5.0
290
     0
  0
SCALE
  5
9E13
102
{ACAD_REACTORS
330
9E0E
102
}
330
9E0E
100
AcDbScale
 70
     0
300
1:8
140
1.0
141
8.0
290
     0
  0
SCALE
  5
9E14
102
{ACAD_REACTORS
330
9E0E
102
}
330
9E0E
100
AcDbScale
 70
     0
300
1:10
140
1.0
141
10.0
290
     0
  0
SCALE
  5
9E15
102
{ACAD_REACTORS
330
9E0E
102
}
330
9E0E
100
AcDbScale
 70
     0
300
1:16
140
1.0
141
16.0
290
     0
  0
SCALE
  5
9E16
102
{ACAD_REACTORS
330
9E0E
102
}
330
9E0E
100
AcDbScale
 70
     0
300
1:20
140
1.0
141
20.0
290
     0
  0
SCALE
  5
9E17
102
{ACAD_REACTORS
330
9E0E
102
}
330
9E0E
100
AcDbScale
 70
     0
300
1:30
140
1.0
141
30.0
290
     0
  0
SCALE
  5
9E18
102
{ACAD_REACTORS
330
9E0E
102
}
330
9E0E
100
AcDbScale
 70
     0
300
1:40
140
1.0
141
40.0
290
     0
  0
SCALE
  5
9E19
102
{ACAD_REACTORS
330
9E0E
102
}
330
9E0E
100
AcDbScale
 70
     0
300
1:50
140
1.0
141
50.0
290
     0
  0
SCALE
  5
9E1A
102
{ACAD_REACTORS
330
9E0E
102
}
330
9E0E
100
AcDbScale
 70
     0
300
1:100
140
1.0
141
100.0
290
     0
  0
SCALE
  5
9E1B
102
{ACAD_REACTORS
330
9E0E
102
}
330
9E0E
100
AcDbScale
 70
     0
300
2:1
140
2.0
141
1.0
290
     0
  0
SCALE
  5
9E1C
102
{ACAD_REACTORS
330
9E0E
102
}
330
9E0E
100
AcDbScale
 70
     0
300
4:1
140
4.0
141
1.0
290
     0
  0
SCALE
  5
9E1D
102
{ACAD_REACTORS
330
9E0E
102
}
330
9E0E
100
AcDbScale
 70
     0
300
8:1
140
8.0
141
1.0
290
     0
  0
SCALE
  5
9E1E
102
{ACAD_REACTORS
330
9E0E
102
}
330
9E0E
100
AcDbScale
 70
     0
300
10:1
140
10.0
141
1.0
290
     0
  0
SCALE
  5
9E1F
102
{ACAD_REACTORS
330
9E0E
102
}
330
9E0E
100
AcDbScale
 70
     0
300
100:1
140
100.0
141
1.0
290
     0
  0
SCALE
  5
9E20
102
{ACAD_REACTORS
330
9E0E
102
}
330
9E0E
100
AcDbScale
 70
     0
300
1/128" = 1'-0"
140
0.0078125
141
12.0
290
     0
  0
SCALE
  5
9E21
102
{ACAD_REACTORS
330
9E0E
102
}
330
9E0E
100
AcDbScale
 70
     0
300
1/64" = 1'-0"
140
0.015625
141
12.0
290
     0
  0
SCALE
  5
9E22
102
{ACAD_REACTORS
330
9E0E
102
}
330
9E0E
100
AcDbScale
 70
     0
300
1/32" = 1'-0"
140
0.03125
141
12.0
290
     0
  0
SCALE
  5
9E23
102
{ACAD_REACTORS
330
9E0E
102
}
330
9E0E
100
AcDbScale
 70
     0
300
1/16" = 1'-0"
140
0.0625
141
12.0
290
     0
  0
SCALE
  5
9E24
102
{ACAD_REACTORS
330
9E0E
102
}
330
9E0E
100
AcDbScale
 70
     0
300
3/32" = 1'-0"
140
0.09375
141
12.0
290
     0
  0
SCALE
  5
9E25
102
{ACAD_REACTORS
330
9E0E
102
}
330
9E0E
100
AcDbScale
 70
     0
300
1/8" = 1'-0"
140
0.125
141
12.0
290
     0
  0
SCALE
  5
9E26
102
{ACAD_REACTORS
330
9E0E
102
}
330
9E0E
100
AcDbScale
 70
     0
300
3/16" = 1'-0"
140
0.1875
141
12.0
290
     0
  0
SCALE
  5
9E27
102
{ACAD_REACTORS
330
9E0E
102
}
330
9E0E
100
AcDbScale
 70
     0
300
1/4" = 1'-0"
140
0.25
141
12.0
290
     0
  0
SCALE
  5
9E28
102
{ACAD_REACTORS
330
9E0E
102
}
330
9E0E
100
AcDbScale
 70
     0
300
3/8" = 1'-0"
140
0.375
141
12.0
290
     0
  0
SCALE
  5
9E29
102
{ACAD_REACTORS
330
9E0E
102
}
330
9E0E
100
AcDbScale
 70
     0
300
1/2" = 1'-0"
140
0.5
141
12.0
290
     0
  0
SCALE
  5
9E2A
102
{ACAD_REACTORS
330
9E0E
102
}
330
9E0E
100
AcDbScale
 70
     0
300
3/4" = 1'-0"
140
0.75
141
12.0
290
     0
  0
SCALE
  5
9E2B
102
{ACAD_REACTORS
330
9E0E
102
}
330
9E0E
100
AcDbScale
 70
     0
300
1" = 1'-0"
140
1.0
141
12.0
290
     0
  0
SCALE
  5
9E2C
102
{ACAD_REACTORS
330
9E0E
102
}
330
9E0E
100
AcDbScale
 70
     0
300
1-1/2" = 1'-0"
140
1.5
141
12.0
290
     0
  0
SCALE
  5
9E2D
102
{ACAD_REACTORS
330
9E0E
102
}
330
9E0E
100
AcDbScale
 70
     0
300
3" = 1'-0"
140
3.0
141
12.0
290
     0
  0
SCALE
  5
9E2E
102
{ACAD_REACTORS
330
9E0E
102
}
330
9E0E
100
AcDbScale
 70
     0
300
6" = 1'-0"
140
6.0
141
12.0
290
     0
  0
SCALE
  5
9E2F
102
{ACAD_REACTORS
330
9E0E
102
}
330
9E0E
100
AcDbScale
 70
     0
300
1'-0" = 1'-0"
140
12.0
141
12.0
290
     0
  0
ACDBSECTIONVIEWSTYLE
  5
B41A
102
{ACAD_XDICTIONARY
360
185FF
102
}
102
{ACAD_REACTORS
330
B418
102
}
330
B418
100
AcDbModelDocViewStyle
 70
     0
  3
Imperial24
290
     0
100
AcDbSectionViewStyle
 70
     0
 71
     0
 90
       78
 71
     1
340
1C9
 40
0.24
340
0
340
0
 40
0.24
300
I, O, Q, S, X, Z
 40
0.48
 90
        3
 40
0.18
 90
        1
 71
     2
340
B419
 90
       25
340
1CD
 90
       50
 40
0.24
 40
0.0
 40
0.24
 71
     3
340
1C9
 40
0.24
 90
        1
 40
0.75
 90
        1
300
%<\AcVar ViewType \f "%tc1">% %<\AcVar ViewSectionStartId>%-%<\AcVar ViewSectionEndId>%\PSCALE %<\AcVar ViewScale \f "%sn">%
 71
     4
300
ANSI31
 40
1.0
 90
        0
290
     0
290
     0
 90
        6
 40
0.0
 40
1.570796326794896
 40
0.2617993877991494
 40
1.308996938995747
 40
-0.2617993877991494
 40
1.832595714594046
  0
ACDBSECTIONVIEWSTYLE
  5
18392
102
{ACAD_XDICTIONARY
360
18603
102
}
102
{ACAD_REACTORS
330
B418
102
}
330
B418
100
AcDbModelDocViewStyle
 70
     0
  3
Metric50
290
     0
100
AcDbSectionViewStyle
 70
     0
 71
     0
 90
      102
 71
     1
340
1C9
 40
5.0
340
0
340
0
 40
5.0
300
I, O, Q, S, X, Z
 40
10.0
 90
        0
 40
2.5
 90
        0
 71
     2
340
1CD
 90
       25
340
1CD
 90
       50
 40
5.0
 40
2.5
 40
5.0
 71
     3
340
1C9
 40
5.0
 90
        0
 40
15.0
 90
        1
300
%<\AcVar ViewSectionStartId>%-%<\AcVar ViewSectionEndId>% (%<\AcVar ViewScale \f "%sn">%)
 71
     4
300
ANSI31
 40
1.0
 90
        0
290
     0
290
     0
 90
        6
 40
0.0
 40
1.570796326794896
 40
0.2617993877991494
 40
1.308996938995747
 40
-0.2617993877991494
 40
1.832595714594046
  0
TABLESTYLE
  5
3CD7
102
{ACAD_XDICTIONARY
360
9E46
102
}
102
{ACAD_REACTORS
330
3CD6
102
}
330
3CD6
100
AcDbTableStyle
  3
Standard
 70
     0
 71
     0
 40
0.06
 41
0.06
280
     0
281
     0
  7
STANDARD
140
0.18
170
     2
 62
     0
 63
     7
283
     0
274
    -2
284
     1
 64
     0
275
    -2
285
     1
 65
     0
276
    -2
286
     1
 66
     0
277
    -2
287
     1
 67
     0
278
    -2
288
     1
 68
     0
279
    -2
289
     1
 69
     0
  7
STANDARD
140
0.25
170
     5
 62
     0
 63
     7
283
     0
274
    -2
284
     1
 64
     0
275
    -2
285
     1
 65
     0
276
    -2
286
     1
 66
     0
277
    -2
287
     1
 67
     0
278
    -2
288
     1
 68
     0
279
    -2
289
     1
 69
     0
  7
STANDARD
140
0.18
170
     5
 62
     0
 63
     7
283
     0
274
    -2
284
     1
 64
     0
275
    -2
285
     1
 65
     0
276
    -2
286
     1
 66
     0
277
    -2
287
     1
 67
     0
278
    -2
288
     1
 68
     0
279
    -2
289
     1
 69
     0
  0
VISUALSTYLE
  5
9E03
102
{ACAD_XDICTIONARY
360
185D5
102
}
102
{ACAD_REACTORS
330
9DFD
102
}
330
9DFD
100
AcDbVisualStyle
  2
2dWireframe
 70
     4
 71
     0
 72
     2
 73
     0
 90
        0
 40
-0.6
 41
-30.0
 62
     5
 63
     7
 74
     1
 91
        4
 64
     7
 65
   257
 75
     1
175
     1
 42
1.0
 92
        0
 66
   257
 43
1.0
 76
     1
 77
     6
 78
     2
 67
     7
 79
     5
170
     0
171
     0
290
     0
174
     0
 93
        1
 44
0.0
173
     0
291
     0
 45
0.0
1001
ACAD
1000
AcDbSavedByObjectVersion
1070
     0
  0
VISUALSTYLE
  5
9E05
102
{ACAD_XDICTIONARY
360
185D9
102
}
102
{ACAD_REACTORS
330
9DFD
102
}
330
9DFD
100
AcDbVisualStyle
  2
3D Hidden
 70
     6
 71
     1
 72
     2
 73
     2
 90
        0
 40
-0.6
 41
-30.0
 62
     5
 63
     7
 74
     2
 91
        2
 64
     7
 65
   257
 75
     2
175
     1
 42
40.0
 92
        0
 66
   257
 43
1.0
 76
     1
 77
     6
 78
     2
 67
     7
 79
     3
170
     0
171
     0
290
     0
174
     0
 93
        1
 44
0.0
173
     0
291
     0
 45
0.0
1001
ACAD
1000
AcDbSavedByObjectVersion
1070
     0
  0
VISUALSTYLE
  5
9E04
102
{ACAD_XDICTIONARY
360
185D7
102
}
102
{ACAD_REACTORS
330
9DFD
102
}
330
9DFD
100
AcDbVisualStyle
  2
3dWireframe
 70
     5
 71
     0
 72
     2
 73
     0
 90
        0
 40
-0.6
 41
-30.0
 62
     5
 63
     7
 74
     1
 91
        4
 64
     7
 65
   257
 75
     1
175
     1
 42
1.0
 92
        0
 66
   257
 43
1.0
 76
     1
 77
     6
 78
     2
 67
     7
 79
     5
170
     0
171
     0
290
     0
174
     0
 93
        1
 44
0.0
173
     0
291
     0
 45
0.0
1001
ACAD
1000
AcDbSavedByObjectVersion
1070
     0
  0
VISUALSTYLE
  5
9E02
102
{ACAD_XDICTIONARY
360
185D3
102
}
102
{ACAD_REACTORS
330
9DFD
102
}
330
9DFD
100
AcDbVisualStyle
  2
Basic
 70
     7
 71
     1
 72
     0
 73
     1
 90
        0
 40
-0.6
 41
-30.0
 62
     5
 63
     7
 74
     0
 91
        4
 64
     7
 65
   257
 75
     1
175
     1
 42
1.0
 92
        8
 66
     7
 43
1.0
 76
     1
 77
     6
 78
     2
 67
     7
 79
     5
170
     0
171
     0
290
     0
174
     0
 93
        1
 44
0.0
173
     0
291
     1
 45
0.0
1001
ACAD
1000
AcDbSavedByObjectVersion
1070
     0
  0
VISUALSTYLE
  5
9E09
102
{ACAD_XDICTIONARY
360
185E1
102
}
102
{ACAD_REACTORS
330
9DFD
102
}
330
9DFD
100
AcDbVisualStyle
  2
Brighten
 70
    12
 71
     2
 72
     2
 73
     0
 90
        0
 40
-0.6
 41
-30.0
 62
     5
 63
     7
 74
     1
 91
        4
 64
     7
 65
   257
 75
     1
175
     1
 42
1.0
 92
        8
 66
     7
 43
1.0
 76
     1
 77
     6
 78
     2
 67
     7
 79
     5
170
     0
171
     0
290
     0
174
     0
 93
        1
 44
50.0
173
     0
291
     1
 45
0.0
1001
ACAD
1000
AcDbSavedByObjectVersion
1070
     0
  0
VISUALSTYLE
  5
9E0D
102
{ACAD_XDICTIONARY
360
185E9
102
}
102
{ACAD_REACTORS
330
9DFD
102
}
330
9DFD
100
AcDbVisualStyle
  2
ColorChange
 70
    16
 71
     2
 72
     2
 73
     3
 90
        0
 40
-0.6
 41
-30.0
 62
     5
 63
     8
 74
     1
 91
        4
 64
     7
 65
   257
 75
     1
175
     1
 42
1.0
 92
        8
 66
     8
 43
1.0
 76
     1
 77
     6
 78
     2
 67
     7
 79
     5
170
     0
171
     0
290
     0
174
     0
 93
        1
 44
0.0
173
     0
291
     1
 45
0.0
1001
ACAD
1000
AcDbSavedByObjectVersion
1070
     0
  0
VISUALSTYLE
  5
9E06
102
{ACAD_XDICTIONARY
360
185DB
102
}
102
{ACAD_REACTORS
330
9DFD
102
}
330
9DFD
100
AcDbVisualStyle
  2
Conceptual
 70
     9
 71
     3
 72
     2
 73
     0
 90
        0
 40
-0.6
 41
-30.0
 62
     5
 63
     7
 74
     2
 91
        2
 64
     7
 65
   257
 75
     1
175
     1
 42
40.0
 92
        8
 66
     7
 43
1.0
 76
     1
 77
     6
 78
     2
 67
     7
 79
     3
170
     0
171
     0
290
     0
174
     0
 93
        1
 44
0.0
173
     0
291
     0
 45
0.0
1001
ACAD
1000
AcDbSavedByObjectVersion
1070
     0
  0
VISUALSTYLE
  5
9E08
102
{ACAD_XDICTIONARY
360
185DF
102
}
102
{ACAD_REACTORS
330
9DFD
102
}
330
9DFD
100
AcDbVisualStyle
  2
Dim
 70
    11
 71
     2
 72
     2
 73
     0
 90
        0
 40
-0.6
 41
-30.0
 62
     5
 63
     7
 74
     1
 91
        4
 64
     7
 65
   257
 75
     1
175
     1
 42
1.0
 92
        8
 66
     7
 43
1.0
 76
     1
 77
     6
 78
     2
 67
     7
 79
     5
170
     0
171
     0
290
     0
174
     0
 93
        1
 44
-50.0
173
     0
291
     1
 45
0.0
1001
ACAD
1000
AcDbSavedByObjectVersion
1070
     0
  0
VISUALSTYLE
  5
B417
102
{ACAD_XDICTIONARY
360
185FD
102
}
102
{ACAD_REACTORS
330
9DFD
102
}
330
9DFD
100
AcDbVisualStyle
  2
EdgeColorOff
 70
    22
 71
     2
 72
     2
 73
     0
 90
        0
 40
-0.6
 41
-30.0
 62
     5
 63
     7
 74
     1
 91
        4
 64
     7
 65
   257
 75
     1
175
     1
 42
1.0
 92
        8
 66
     7
 43
1.0
 76
     1
 77
     6
 78
     2
 67
     7
 79
     5
170
     0
171
     0
290
     0
174
     0
 93
        1
 44
0.0
173
     0
291
     1
 45
0.0
1001
ACAD
1000
AcDbSavedByObjectVersion
1070
     0
  0
VISUALSTYLE
  5
9E0C
102
{ACAD_XDICTIONARY
360
185E7
102
}
102
{ACAD_REACTORS
330
9DFD
102
}
330
9DFD
100
AcDbVisualStyle
  2
Facepattern
 70
    15
 71
     2
 72
     2
 73
     0
 90
        0
 40
-0.6
 41
-30.0
 62
     5
 63
     7
 74
     1
 91
        4
 64
     7
 65
   257
 75
     1
175
     1
 42
1.0
 92
        8
 66
     7
 43
1.0
 76
     1
 77
     6
 78
     2
 67
     7
 79
     5
170
     0
171
     0
290
     0
174
     0
 93
        1
 44
0.0
173
     0
291
     1
 45
0.0
1001
ACAD
1000
AcDbSavedByObjectVersion
1070
     0
  0
VISUALSTYLE
  5
9DFE
102
{ACAD_XDICTIONARY
360
185CB
102
}
102
{ACAD_REACTORS
330
9DFD
102
}
330
9DFD
100
AcDbVisualStyle
  2
Flat
 70
     0
 71
     2
 72
     1
 73
     1
 90
        2
 40
-0.6
 41
30.0
 62
     5
 63
     7
 74
     0
 91
        4
 64
     7
 65
   257
 75
     1
175
     1
 42
1.0
 92
        8
 66
     7
 43
1.0
 76
     1
 77
     6
 78
     2
 67
     7
 79
     5
170
     0
171
     0
290
     0
174
     0
 93
       13
 44
0.0
173
     0
291
     1
 45
0.0
1001
ACAD
1000
AcDbSavedByObjectVersion
1070
     0
  0
VISUALSTYLE
  5
9DFF
102
{ACAD_XDICTIONARY
360
185CD
102
}
102
{ACAD_REACTORS
330
9DFD
102
}
330
9DFD
100
AcDbVisualStyle
  2
FlatWithEdges
 70
     1
 71
     2
 72
     1
 73
     1
 90
        2
 40
-0.6
 41
30.0
 62
     5
 63
     7
 74
     1
 91
        4
 64
     7
 65
   257
 75
     1
175
     1
 42
1.0
 92
        0
 66
   257
 43
1.0
 76
     1
 77
     6
 78
     2
 67
     7
 79
     5
170
     0
171
     0
290
     0
174
     0
 93
       13
 44
0.0
173
     0
291
     1
 45
0.0
1001
ACAD
1000
AcDbSavedByObjectVersion
1070
     0
  0
VISUALSTYLE
  5
9E00
102
{ACAD_XDICTIONARY
360
185CF
102
}
102
{ACAD_REACTORS
330
9DFD
102
}
330
9DFD
100
AcDbVisualStyle
  2
Gouraud
 70
     2
 71
     2
 72
     2
 73
     1
 90
        2
 40
-0.6
 41
30.0
 62
     5
 63
     7
 74
     0
 91
        4
 64
     7
 65
   257
 75
     1
175
     1
 42
1.0
 92
        0
 66
     7
 43
1.0
 76
     1
 77
     6
 78
     2
 67
     7
 79
     5
170
     0
171
     0
290
     0
174
     0
 93
       13
 44
0.0
173
     0
291
     1
 45
0.0
1001
ACAD
1000
AcDbSavedByObjectVersion
1070
     0
  0
VISUALSTYLE
  5
9E01
102
{ACAD_XDICTIONARY
360
185D1
102
}
102
{ACAD_REACTORS
330
9DFD
102
}
330
9DFD
100
AcDbVisualStyle
  2
GouraudWithEdges
 70
     3
 71
     2
 72
     2
 73
     1
 90
        2
 40
-0.6
 41
30.0
 62
     5
 63
     7
 74
     1
 91
        4
 64
     7
 65
   257
 75
     1
175
     1
 42
1.0
 92
        0
 66
   257
 43
1.0
 76
     1
 77
     6
 78
     2
 67
     7
 79
     5
170
     0
171
     0
290
     0
174
     0
 93
       13
 44
0.0
173
     0
291
     1
 45
0.0
1001
ACAD
1000
AcDbSavedByObjectVersion
1070
     0
  0
VISUALSTYLE
  5
B40F
102
{ACAD_XDICTIONARY
360
185ED
102
}
102
{ACAD_REACTORS
330
9DFD
102
}
330
9DFD
100
AcDbVisualStyle
  2
Hidden
 70
     6
 71
     1
 72
     2
 73
     2
 90
        0
 40
-0.6
 41
-30.0
 62
     5
 63
     7
 74
     2
 91
        2
 64
     7
 65
   257
 75
     2
175
     1
 42
40.0
 92
        0
 66
   257
 43
1.0
 76
     1
 77
     6
 78
     2
 67
     7
 79
     3
170
     0
171
     0
290
     0
174
     0
 93
        1
 44
0.0
173
     0
291
     0
 45
0.0
1001
ACAD
1000
AcDbSavedByObjectVersion
1070
     0
  0
VISUALSTYLE
  5
B415
102
{ACAD_XDICTIONARY
360
185F9
102
}
102
{ACAD_REACTORS
330
9DFD
102
}
330
9DFD
100
AcDbVisualStyle
  2
JitterOff
 70
    20
 71
     2
 72
     2
 73
     0
 90
        0
 40
-0.6
 41
-30.0
 62
     5
 63
     7
 74
     1
 91
        4
 64
     7
 65
   257
 75
     1
175
     1
 42
1.0
 92
       10
 66
     7
 43
1.0
 76
     1
 77
     6
 78
     2
 67
     7
 79
     5
170
     0
171
     0
290
     0
174
     0
 93
        1
 44
0.0
173
     0
291
     1
 45
0.0
1001
ACAD
1000
AcDbSavedByObjectVersion
1070
     0
  0
VISUALSTYLE
  5
9E0B
102
{ACAD_XDICTIONARY
360
185E5
102
}
102
{ACAD_REACTORS
330
9DFD
102
}
330
9DFD
100
AcDbVisualStyle
  2
Linepattern
 70
    14
 71
     2
 72
     2
 73
     0
 90
        0
 40
-0.6
 41
-30.0
 62
     5
 63
     7
 74
     1
 91
        4
 64
     7
 65
   257
 75
     7
175
     7
 42
1.0
 92
        8
 66
     7
 43
1.0
 76
     1
 77
     6
 78
     2
 67
     7
 79
     5
170
     0
171
     0
290
     0
174
     0
 93
        1
 44
0.0
173
     0
291
     1
 45
0.0
1001
ACAD
1000
AcDbSavedByObjectVersion
1070
     0
  0
VISUALSTYLE
  5
B416
102
{ACAD_XDICTIONARY
360
185FB
102
}
102
{ACAD_REACTORS
330
9DFD
102
}
330
9DFD
100
AcDbVisualStyle
  2
OverhangOff
 70
    21
 71
     2
 72
     2
 73
     0
 90
        0
 40
-0.6
 41
-30.0
 62
     5
 63
     7
 74
     1
 91
        4
 64
     7
 65
   257
 75
     1
175
     1
 42
1.0
 92
        9
 66
     7
 43
1.0
 76
     1
 77
     6
 78
     2
 67
     7
 79
     5
170
     0
171
     0
290
     0
174
     0
 93
        1
 44
0.0
173
     0
291
     1
 45
0.0
1001
ACAD
1000
AcDbSavedByObjectVersion
1070
     0
  0
VISUALSTYLE
  5
9E07
102
{ACAD_XDICTIONARY
360
185DD
102
}
102
{ACAD_REACTORS
330
9DFD
102
}
330
9DFD
100
AcDbVisualStyle
  2
Realistic
 70
     8
 71
     2
 72
     2
 73
     0
 90
        0
 40
-0.6
 41
-30.0
 62
     5
 63
     7
 74
     1
 91
        0
 64
     7
 65
   257
 75
     1
175
     1
 42
1.0
 92
        8
 66
     8
 43
1.0
 76
     1
 77
     6
 78
     2
 67
     7
 79
     5
170
     0
171
     0
290
     0
174
     0
 93
       13
 44
0.0
173
     0
291
     0
 45
0.0
1001
ACAD
1000
AcDbSavedByObjectVersion
1070
     0
  0
VISUALSTYLE
  5
B414
102
{ACAD_XDICTIONARY
360
185F7
102
}
102
{ACAD_REACTORS
330
9DFD
102
}
330
9DFD
100
AcDbVisualStyle
  2
Shaded
 70
    27
 71
     2
 72
     2
 73
     1
 90
        2
 40
-0.6
 41
30.0
 62
     5
 63
     7
 74
     0
 91
        4
 64
     7
 65
   257
 75
     1
175
     1
 42
1.0
 92
        8
 66
   257
 43
1.0
 76
     1
 77
     6
 78
     2
 67
     8
 79
     3
170
     0
171
     0
290
     0
174
     0
 93
        5
 44
0.0
173
     0
291
     0
 45
0.0
1001
ACAD
1000
AcDbSavedByObjectVersion
1070
     0
  0
VISUALSTYLE
  5
B413
102
{ACAD_XDICTIONARY
360
185F5
102
}
102
{ACAD_REACTORS
330
9DFD
102
}
330
9DFD
100
AcDbVisualStyle
  2
Shaded with edges
 70
    26
 71
     2
 72
     2
 73
     1
 90
        2
 40
-0.6
 41
30.0
 62
     5
 63
     7
 74
     1
 91
        2
 64
     7
 65
   257
 75
     2
175
     1
 42
1.0
 92
        8
 66
   257
 43
1.0
 76
     1
 77
     6
 78
     2
 67
     7
 79
     3
170
     0
171
     0
290
     0
174
     0
 93
        5
 44
0.0
173
     0
291
     0
 45
0.0
1001
ACAD
1000
AcDbSavedByObjectVersion
1070
     0
  0
VISUALSTYLE
  5
B410
102
{ACAD_XDICTIONARY
360
185EF
102
}
102
{ACAD_REACTORS
330
9DFD
102
}
330
9DFD
100
AcDbVisualStyle
  2
Shades of Gray
 70
    23
 71
     2
 72
     2
 73
     3
 90
        0
 40
-0.6
 41
-30.0
 62
     5
 63
     7
 74
     2
 91
        2
 64
     7
 65
     7
 75
     1
175
     1
 42
40.0
 92
        8
 66
     7
 43
1.0
 76
     1
 77
     6
 78
     2
 67
     7
 79
     3
170
     0
171
     0
290
     0
174
     0
 93
        1
 44
0.0
173
     0
291
     0
 45
0.0
1001
ACAD
1000
AcDbSavedByObjectVersion
1070
     0
  0
VISUALSTYLE
  5
B411
102
{ACAD_XDICTIONARY
360
185F1
102
}
102
{ACAD_REACTORS
330
9DFD
102
}
330
9DFD
100
AcDbVisualStyle
  2
Sketchy
 70
    24
 71
     1
 72
     2
 73
     2
 90
        0
 40
-0.6
 41
-30.0
 62
     5
 63
     7
 74
     2
 91
        2
 64
     7
 65
     7
 75
     1
175
     1
 42
40.0
 92
       11
 66
     7
 43
1.0
 76
     1
 77
     6
 78
     2
 67
     7
 79
     6
170
     0
171
     0
290
     0
174
     0
 93
        1
 44
0.0
173
     0
291
     0
 45
0.0
1001
ACAD
1000
AcDbSavedByObjectVersion
1070
     0
  0
VISUALSTYLE
  5
9E0A
102
{ACAD_XDICTIONARY
360
185E3
102
}
102
{ACAD_REACTORS
330
9DFD
102
}
330
9DFD
100
AcDbVisualStyle
  2
Thicken
 70
    13
 71
     2
 72
     2
 73
     0
 90
        0
 40
-0.6
 41
-30.0
 62
     5
 63
     7
 74
     1
 91
        4
 64
     7
 65
   257
 75
     1
175
     1
 42
1.0
 92
       12
 66
     7
 43
1.0
 76
     1
 77
     6
 78
     2
 67
     7
 79
     5
170
     0
171
     0
290
     0
174
     0
 93
        1
 44
0.0
173
     0
291
     1
 45
0.0
1001
ACAD
1000
AcDbSavedByObjectVersion
1070
     0
  0
VISUALSTYLE
  5
B40E
102
{ACAD_XDICTIONARY
360
185EB
102
}
102
{ACAD_REACTORS
330
9DFD
102
}
330
9DFD
100
AcDbVisualStyle
  2
Wireframe
 70
     5
 71
     0
 72
     2
 73
     0
 90
        0
 40
-0.6
 41
-30.0
 62
     5
 63
     7
 74
     1
 91
        4
 64
     7
 65
   257
 75
     1
175
     1
 42
1.0
 92
        0
 66
   257
 43
1.0
 76
     1
 77
     6
 78
     2
 67
     7
 79
     3
170
     0
171
     0
290
     0
174
     0
 93
        1
 44
0.0
173
     0
291
     0
 45
0.0
1001
ACAD
1000
AcDbSavedByObjectVersion
1070
     0
  0
VISUALSTYLE
  5
B412
102
{ACAD_XDICTIONARY
360
185F3
102
}
102
{ACAD_REACTORS
330
9DFD
102
}
330
9DFD
100
AcDbVisualStyle
  2
X-Ray
 70
    25
 71
     2
 72
     2
 73
     1
 90
        1
 40
0.5
 41
-30.0
 62
     5
 63
     7
 74
     1
 91
        0
 64
     7
 65
   257
 75
     1
175
     1
 42
1.0
 92
        8
 66
     7
 43
1.0
 76
     1
 77
     6
 78
     2
 67
     7
 79
     3
170
     0
171
     0
290
     0
174
     0
 93
       13
 44
0.0
173
     0
291
     0
 45
0.0
1001
ACAD
1000
AcDbSavedByObjectVersion
1070
     0
  0
DICTIONARYVAR
  5
9E98
102
{ACAD_REACTORS
330
244
102
}
330
244
100
DictionaryVariables
280
     0
  1
1:1
  0
DICTIONARYVAR
  5
9E97
102
{ACAD_REACTORS
330
244
102
}
330
244
100
DictionaryVariables
280
     0
  1
STANDARD
  0
DICTIONARYVAR
  5
3CE5
102
{ACAD_REACTORS
330
244
102
}
330
244
100
DictionaryVariables
280
     0
  1
STANDARD
  0
DICTIONARYVAR
  5
B4BA
102
{ACAD_REACTORS
330
244
102
}
330
244
100
DictionaryVariables
280
     0
  1
Imperial24
  0
DICTIONARYVAR
  5
B4BB
102
{ACAD_REACTORS
330
244
102
}
330
244
100
DictionaryVariables
280
     0
  1
Imperial24
  0
DICTIONARYVAR
  5
245
102
{ACAD_REACTORS
330
244
102
}
330
244
100
DictionaryVariables
280
     0
  1
2
  0
DICTIONARYVAR
  5
3CE6
102
{ACAD_REACTORS
330
244
102
}
330
244
100
DictionaryVariables
280
     0
  1
1
  0
DICTIONARYVAR
  5
185B3
102
{ACAD_REACTORS
330
244
102
}
330
244
100
DictionaryVariables
280
     0
  1
0
  0
DICTIONARYVAR
  5
C4A1
102
{ACAD_REACTORS
330
244
102
}
330
244
100
DictionaryVariables
280
     0
  1
1
  0
DICTIONARYVAR
  5
C4A2
102
{ACAD_REACTORS
330
244
102
}
330
244
100
DictionaryVariables
280
     0
  1
15
  0
DICTIONARYVAR
  5
C4A0
102
{ACAD_REACTORS
330
244
102
}
330
244
100
DictionaryVariables
280
     0
  1
0
  0
DICTIONARYVAR
  5
C49F
102
{ACAD_REACTORS
330
244
102
}
330
244
100
DictionaryVariables
280
     0
  1
0
  0
DICTIONARYVAR
  5
3CE7
102
{ACAD_REACTORS
330
244
102
}
330
244
100
DictionaryVariables
280
     0
  1

  0
DICTIONARYVAR
  5
185B2
102
{ACAD_REACTORS
330
244
102
}
330
244
100
DictionaryVariables
280
     0
  1
127
  0
DICTIONARYVAR
  5
185B4
102
{ACAD_REACTORS
330
244
102
}
330
244
100
DictionaryVariables
280
     0
  1
0
  0
DICTIONARY
  5
185BF
102
{ACAD_REACTORS
330
185BD
102
}
330
185BD
100
AcDbDictionary
281
     1
  0
DICTIONARY
  5
185BE
102
{ACAD_REACTORS
330
185BD
102
}
330
185BD
100
AcDbDictionary
281
     1
  3
2829333654400
350
185B8
  3
2829333654416
350
185B9
  3
2829333654432
350
185BA
  3
2829333654448
350
185BB
  3
2829333654464
350
185BC
  0
DICTIONARY
  5
18601
330
B41C
100
AcDbDictionary
280
     1
281
     1
  3
ACAD_XREC_ROUNDTRIP
360
18602
  0
DICTIONARY
  5
18605
330
18393
100
AcDbDictionary
280
     1
281
     1
  3
ACAD_XREC_ROUNDTRIP
360
18606
  0
DICTIONARY
  5
B47C
330
25F
100
AcDbDictionary
280
     1
281
     1
  3
ACAD_XREC_ROUNDTRIP
360
185C0
  0
DICTIONARY
  5
185C1
330
260
100
AcDbDictionary
280
     1
281
     1
  3
ACAD_XREC_ROUNDTRIP
360
185C2
  0
DICTIONARY
  5
9DEE
330
9DED
100
AcDbDictionary
280
     1
281
     1
  3
ACAD_XREC_ROUNDTRIP
360
185C9
  3
BUMPTILE
360
9DF0
  3
DIFFUSETILE
360
9DEF
  3
OPACITYTILE
360
9DF3
  3
REFLECTIONTILE
360
9DF2
  3
REFRACTIONTILE
360
9DF4
  3
SPECULARTILE
360
9DF1
  0
DICTIONARY
  5
9DE6
330
9DE5
100
AcDbDictionary
280
     1
281
     1
  3
ACAD_XREC_ROUNDTRIP
360
185C8
  3
BUMPTILE
360
9DE8
  3
DIFFUSETILE
360
9DE7
  3
OPACITYTILE
360
9DEB
  3
REFLECTIONTILE
360
9DEA
  3
REFRACTIONTILE
360
9DEC
  3
SPECULARTILE
360
9DE9
  0
DICTIONARY
  5
9DF6
330
9DF5
100
AcDbDictionary
280
     1
281
     1
  3
ACAD_XREC_ROUNDTRIP
360
185CA
  3
BUMPTILE
360
9DF8
  3
DIFFUSETILE
360
9DF7
  3
OPACITYTILE
360
9DFB
  3
REFLECTIONTILE
360
9DFA
  3
REFRACTIONTILE
360
9DFC
  3
SPECULARTILE
360
9DF9
  0
DICTIONARY
  5
185FF
330
B41A
100
AcDbDictionary
280
     1
281
     1
  3
ACAD_XREC_ROUNDTRIP
360
18600
  0
DICTIONARY
  5
18603
330
18392
100
AcDbDictionary
280
     1
281
     1
  3
ACAD_XREC_ROUNDTRIP
360
18604
  0
DICTIONARY
  5
9E46
330
3CD7
100
AcDbDictionary
280
     1
281
     1
  3
ACAD_ROUNDTRIP_2008_TABLESTYLE_CELLSTYLEMAP
360
185B5
  3
ACAD_XREC_ROUNDTRIP
360
185C7
  0
DICTIONARY
  5
185D5
330
9E03
100
AcDbDictionary
280
     1
281
     1
  3
ACAD_XREC_ROUNDTRIP
360
185D6
  0
DICTIONARY
  5
185D9
330
9E05
100
AcDbDictionary
280
     1
281
     1
  3
ACAD_XREC_ROUNDTRIP
360
185DA
  0
DICTIONARY
  5
185D7
330
9E04
100
AcDbDictionary
280
     1
281
     1
  3
ACAD_XREC_ROUNDTRIP
360
185D8
  0
DICTIONARY
  5
185D3
330
9E02
100
AcDbDictionary
280
     1
281
     1
  3
ACAD_XREC_ROUNDTRIP
360
185D4
  0
DICTIONARY
  5
185E1
330
9E09
100
AcDbDictionary
280
     1
281
     1
  3
ACAD_XREC_ROUNDTRIP
360
185E2
  0
DICTIONARY
  5
185E9
330
9E0D
100
AcDbDictionary
280
     1
281
     1
  3
ACAD_XREC_ROUNDTRIP
360
185EA
  0
DICTIONARY
  5
185DB
330
9E06
100
AcDbDictionary
280
     1
281
     1
  3
ACAD_XREC_ROUNDTRIP
360
185DC
  0
DICTIONARY
  5
185DF
330
9E08
100
AcDbDictionary
280
     1
281
     1
  3
ACAD_XREC_ROUNDTRIP
360
185E0
  0
DICTIONARY
  5
185FD
330
B417
100
AcDbDictionary
280
     1
281
     1
  3
ACAD_XREC_ROUNDTRIP
360
185FE
  0
DICTIONARY
  5
185E7
330
9E0C
100
AcDbDictionary
280
     1
281
     1
  3
ACAD_XREC_ROUNDTRIP
360
185E8
  0
DICTIONARY
  5
185CB
330
9DFE
100
AcDbDictionary
280
     1
281
     1
  3
ACAD_XREC_ROUNDTRIP
360
185CC
  0
DICTIONARY
  5
185CD
330
9DFF
100
AcDbDictionary
280
     1
281
     1
  3
ACAD_XREC_ROUNDTRIP
360
185CE
  0
DICTIONARY
  5
185CF
330
9E00
100
AcDbDictionary
280
     1
281
     1
  3
ACAD_XREC_ROUNDTRIP
360
185D0
  0
DICTIONARY
  5
185D1
330
9E01
100
AcDbDictionary
280
     1
281
     1
  3
ACAD_XREC_ROUNDTRIP
360
185D2
  0
DICTIONARY
  5
185ED
330
B40F
100
AcDbDictionary
280
     1
281
     1
  3
ACAD_XREC_ROUNDTRIP
360
185EE
  0
DICTIONARY
  5
185F9
330
B415
100
AcDbDictionary
280
     1
281
     1
  3
ACAD_XREC_ROUNDTRIP
360
185FA
  0
DICTIONARY
  5
185E5
330
9E0B
100
AcDbDictionary
280
     1
281
     1
  3
ACAD_XREC_ROUNDTRIP
360
185E6
  0
DICTIONARY
  5
185FB
330
B416
100
AcDbDictionary
280
     1
281
     1
  3
ACAD_XREC_ROUNDTRIP
360
185FC
  0
DICTIONARY
  5
185DD
330
9E07
100
AcDbDictionary
280
     1
281
     1
  3
ACAD_XREC_ROUNDTRIP
360
185DE
  0
DICTIONARY
  5
185F7
330
B414
100
AcDbDictionary
280
     1
281
     1
  3
ACAD_XREC_ROUNDTRIP
360
185F8
  0
DICTIONARY
  5
185F5
330
B413
100
AcDbDictionary
280
     1
281
     1
  3
ACAD_XREC_ROUNDTRIP
360
185F6
  0
DICTIONARY
  5
185EF
330
B410
100
AcDbDictionary
280
     1
281
     1
  3
ACAD_XREC_ROUNDTRIP
360
185F0
  0
DICTIONARY
  5
185F1
330
B411
100
AcDbDictionary
280
     1
281
     1
  3
ACAD_XREC_ROUNDTRIP
360
185F2
  0
DICTIONARY
  5
185E3
330
9E0A
100
AcDbDictionary
280
     1
281
     1
  3
ACAD_XREC_ROUNDTRIP
360
185E4
  0
DICTIONARY
  5
185EB
330
B40E
100
AcDbDictionary
280
     1
281
     1
  3
ACAD_XREC_ROUNDTRIP
360
185EC
  0
DICTIONARY
  5
185F3
330
B412
100
AcDbDictionary
280
     1
281
     1
  3
ACAD_XREC_ROUNDTRIP
360
185F4
  0
XRECORD
  5
185B8
102
{ACAD_REACTORS
330
185BE
102
}
330
185BE
100
AcDbXrecord
280
     1
  1
AcDb_Thumbnail_Schema
102
{ATTRRECORD
341
185B9
  2
AcDbDs::TreatedAsObjectData
280
     1
291
     1
102
ATTRRECORD}
102
{ATTRRECORD
341
185BA
  2
AcDbDs::Legacy
280
     1
291
     1
102
ATTRRECORD}
  2
AcDbDs::ID
280
    10
 91
        8
102
{ATTRRECORD
341
185BB
  2
AcDs:Indexable
280
     1
291
     1
102
ATTRRECORD}
102
{ATTRRECORD
341
185BC
  2
AcDbDs::HandleAttribute
280
     7
282
     1
102
ATTRRECORD}
  2
Thumbnail_Data
280
    15
 91
        0
  0
XRECORD
  5
185B9
102
{ACAD_REACTORS
330
185BE
102
}
330
185BE
100
AcDbXrecord
280
     1
  1
AcDbDs::TreatedAsObjectDataSchema
  2
AcDbDs::TreatedAsObjectData
280
     1
 91
        0
  0
XRECORD
  5
185BA
102
{ACAD_REACTORS
330
185BE
102
}
330
185BE
100
AcDbXrecord
280
     1
  1
AcDbDs::LegacySchema
  2
AcDbDs::Legacy
280
     1
 91
        0
  0
XRECORD
  5
185BB
102
{ACAD_REACTORS
330
185BE
102
}
330
185BE
100
AcDbXrecord
280
     1
  1
AcDbDs::IndexedPropertySchema
  2
AcDs:Indexable
280
     1
 91
        0
  0
XRECORD
  5
185BC
102
{ACAD_REACTORS
330
185BE
102
}
330
185BE
100
AcDbXrecord
280
     1
  1
AcDbDs::HandleAttributeSchema
  2
AcDbDs::HandleAttribute
280
     7
 91
        1
284
     1
  0
XRECORD
  5
18602
102
{ACAD_REACTORS
330
18601
102
}
330
18601
100
AcDbXrecord
280
     1
102
DISPLAYNAME
  1
Imperial24
102
FLAGS
 90
        0
  0
XRECORD
  5
18606
102
{ACAD_REACTORS
330
18605
102
}
330
18605
100
AcDbXrecord
280
     1
102
DISPLAYNAME
  1
Metric50
102
FLAGS
 90
        0
  0
XRECORD
  5
185C0
102
{ACAD_REACTORS
330
B47C
102
}
330
B47C
100
AcDbXrecord
280
     1
102
SHADEPLOT
 70
     0
102
SHADEPLOTRESLEVEL
 70
     2
102
SHADEPLOTCUSTOMDPI
 70
   300
  0
XRECORD
  5
185C2
102
{ACAD_REACTORS
330
185C1
102
}
330
185C1
100
AcDbXrecord
280
     1
102
SHADEPLOT
 70
     0
102
SHADEPLOTRESLEVEL
 70
     2
102
SHADEPLOTCUSTOMDPI
 70
   300
  0
XRECORD
  5
185C9
102
{ACAD_REACTORS
330
9DEE
102
}
330
9DEE
100
AcDbXrecord
280
     1
102
MATERIAL
148
0.0
149
0.0
149
0.0
 93
        0
 94
      127
282
     0
 72
     0
 77
     0
171
     0
175
     0
179
     0
273
     0
  0
XRECORD
  5
9DF0
102
{ACAD_REACTORS
330
9DEE
102
}
330
9DEE
100
AcDbXrecord
280
     1
270
     1
271
     1
  0
XRECORD
  5
9DEF
102
{ACAD_REACTORS
330
9DEE
102
}
330
9DEE
100
AcDbXrecord
280
     1
270
     1
271
     1
  0
XRECORD
  5
9DF3
102
{ACAD_REACTORS
330
9DEE
102
}
330
9DEE
100
AcDbXrecord
280
     1
270
     1
271
     1
  0
XRECORD
  5
9DF2
102
{ACAD_REACTORS
330
9DEE
102
}
330
9DEE
100
AcDbXrecord
280
     1
270
     1
271
     1
  0
XRECORD
  5
9DF4
102
{ACAD_REACTORS
330
9DEE
102
}
330
9DEE
100
AcDbXrecord
280
     1
270
     1
271
     1
  0
XRECORD
  5
9DF1
102
{ACAD_REACTORS
330
9DEE
102
}
330
9DEE
100
AcDbXrecord
280
     1
270
     1
271
     1
  0
XRECORD
  5
185C8
102
{ACAD_REACTORS
330
9DE6
102
}
330
9DE6
100
AcDbXrecord
280
     1
102
MATERIAL
148
0.0
149
0.0
149
0.0
 93
        0
 94
      127
282
     0
 72
     0
 77
     0
171
     0
175
     0
179
     0
273
     0
  0
XRECORD
  5
9DE8
102
{ACAD_REACTORS
330
9DE6
102
}
330
9DE6
100
AcDbXrecord
280
     1
270
     1
271
     1
  0
XRECORD
  5
9DE7
102
{ACAD_REACTORS
330
9DE6
102
}
330
9DE6
100
AcDbXrecord
280
     1
270
     1
271
     1
  0
XRECORD
  5
9DEB
102
{ACAD_REACTORS
330
9DE6
102
}
330
9DE6
100
AcDbXrecord
280
     1
270
     1
271
     1
  0
XRECORD
  5
9DEA
102
{ACAD_REACTORS
330
9DE6
102
}
330
9DE6
100
AcDbXrecord
280
     1
270
     1
271
     1
  0
XRECORD
  5
9DEC
102
{ACAD_REACTORS
330
9DE6
102
}
330
9DE6
100
AcDbXrecord
280
     1
270
     1
271
     1
  0
XRECORD
  5
9DE9
102
{ACAD_REACTORS
330
9DE6
102
}
330
9DE6
100
AcDbXrecord
280
     1
270
     1
271
     1
  0
XRECORD
  5
185CA
102
{ACAD_REACTORS
330
9DF6
102
}
330
9DF6
100
AcDbXrecord
280
     1
102
MATERIAL
148
0.0
149
0.0
149
0.0
 93
        0
 94
      127
282
     0
 72
     0
 77
     0
171
     0
175
     0
179
     0
273
     0
  0
XRECORD
  5
9DF8
102
{ACAD_REACTORS
330
9DF6
102
}
330
9DF6
100
AcDbXrecord
280
     1
270
     1
271
     1
  0
XRECORD
  5
9DF7
102
{ACAD_REACTORS
330
9DF6
102
}
330
9DF6
100
AcDbXrecord
280
     1
270
     1
271
     1
  0
XRECORD
  5
9DFB
102
{ACAD_REACTORS
330
9DF6
102
}
330
9DF6
100
AcDbXrecord
280
     1
270
     1
271
     1
  0
XRECORD
  5
9DFA
102
{ACAD_REACTORS
330
9DF6
102
}
330
9DF6
100
AcDbXrecord
280
     1
270
     1
271
     1
  0
XRECORD
  5
9DFC
102
{ACAD_REACTORS
330
9DF6
102
}
330
9DF6
100
AcDbXrecord
280
     1
270
     1
271
     1
  0
XRECORD
  5
9DF9
102
{ACAD_REACTORS
330
9DF6
102
}
330
9DF6
100
AcDbXrecord
280
     1
270
     1
271
     1
  0
XRECORD
  5
18600
102
{ACAD_REACTORS
330
185FF
102
}
330
185FF
100
AcDbXrecord
280
     1
102
DISPLAYNAME
  1
Imperial24
102
FLAGS
 90
        0
  0
XRECORD
  5
18604
102
{ACAD_REACTORS
330
18603
102
}
330
18603
100
AcDbXrecord
280
     1
102
DISPLAYNAME
  1
Metric50
102
FLAGS
 90
        0
  0
CELLSTYLEMAP
  5
185B5
102
{ACAD_REACTORS
330
9E46
102
}
330
9E46
100
AcDbCellStyleMap
 90
        3
300
CELLSTYLE
  1
TABLEFORMAT_BEGIN
 90
        5
170
     1
 91
        0
 92
    32768
 62
   257
 93
        1
300
CONTENTFORMAT
  1
CONTENTFORMAT_BEGIN
 90
        0
 91
        0
 92
        4
 93
        0
300

 40
0.0
140
1.0
 94
        5
 62
     0
340
1C9
144
0.25
309
CONTENTFORMAT_END
171
     0
 94
        6
 95
        1
302
GRIDFORMAT
  1
GRIDFORMAT_BEGIN
 90
        0
 91
        1
 62
     0
 92
       -2
340
0
 93
        0
 40
0.045
309
GRIDFORMAT_END
 95
        2
302
GRIDFORMAT
  1
GRIDFORMAT_BEGIN
 90
        0
 91
        1
 62
     0
 92
       -2
340
0
 93
        0
 40
0.045
309
GRIDFORMAT_END
 95
        4
302
GRIDFORMAT
  1
GRIDFORMAT_BEGIN
 90
        0
 91
        1
 62
     0
 92
       -2
340
0
 93
        0
 40
0.045
309
GRIDFORMAT_END
 95
        8
302
GRIDFORMAT
  1
GRIDFORMAT_BEGIN
 90
        0
 91
        1
 62
     0
 92
       -2
340
0
 93
        0
 40
0.045
309
GRIDFORMAT_END
 95
       16
302
GRIDFORMAT
  1
GRIDFORMAT_BEGIN
 90
        0
 91
        1
 62
     0
 92
       -2
340
0
 93
        0
 40
0.045
309
GRIDFORMAT_END
 95
       32
302
GRIDFORMAT
  1
GRIDFORMAT_BEGIN
 90
        0
 91
        1
 62
     0
 92
       -2
340
0
 93
        0
 40
0.045
309
GRIDFORMAT_END
309
TABLEFORMAT_END
  1
CELLSTYLE_BEGIN
 90
        1
 91
        1
300
_TITLE
309
CELLSTYLE_END
300
CELLSTYLE
  1
TABLEFORMAT_BEGIN
 90
        5
170
     1
 91
        0
 92
        0
 62
   257
 93
        1
300
CONTENTFORMAT
  1
CONTENTFORMAT_BEGIN
 90
        0
 91
        0
 92
        4
 93
        0
300

 40
0.0
140
1.0
 94
        5
 62
     0
340
1C9
144
0.18
309
CONTENTFORMAT_END
171
     0
 94
        6
 95
        1
302
GRIDFORMAT
  1
GRIDFORMAT_BEGIN
 90
        0
 91
        1
 62
     0
 92
       -2
340
0
 93
        0
 40
0.045
309
GRIDFORMAT_END
 95
        2
302
GRIDFORMAT
  1
GRIDFORMAT_BEGIN
 90
        0
 91
        1
 62
     0
 92
       -2
340
0
 93
        0
 40
0.045
309
GRIDFORMAT_END
 95
        4
302
GRIDFORMAT
  1
GRIDFORMAT_BEGIN
 90
        0
 91
        1
 62
     0
 92
       -2
340
0
 93
        0
 40
0.045
309
GRIDFORMAT_END
 95
        8
302
GRIDFORMAT
  1
GRIDFORMAT_BEGIN
 90
        0
 91
        1
 62
     0
 92
       -2
340
0
 93
        0
 40
0.045
309
GRIDFORMAT_END
 95
       16
302
GRIDFORMAT
  1
GRIDFORMAT_BEGIN
 90
        0
 91
        1
 62
     0
 92
       -2
340
0
 93
        0
 40
0.045
309
GRIDFORMAT_END
 95
       32
302
GRIDFORMAT
  1
GRIDFORMAT_BEGIN
 90
        0
 91
        1
 62
     0
 92
       -2
340
0
 93
        0
 40
0.045
309
GRIDFORMAT_END
309
TABLEFORMAT_END
  1
CELLSTYLE_BEGIN
 90
        2
 91
        1
300
_HEADER
309
CELLSTYLE_END
300
CELLSTYLE
  1
TABLEFORMAT_BEGIN
 90
        5
170
     1
 91
        0
 92
        0
 62
   257
 93
        1
300
CONTENTFORMAT
  1
CONTENTFORMAT_BEGIN
 90
        0
 91
        0
 92
        4
 93
        0
300

 40
0.0
140
1.0
 94
        2
 62
     0
340
1C9
144
0.18
309
CONTENTFORMAT_END
171
     0
 94
        6
 95
        1
302
GRIDFORMAT
  1
GRIDFORMAT_BEGIN
 90
        0
 91
        1
 62
     0
 92
       -2
340
0
 93
        0
 40
0.045
309
GRIDFORMAT_END
 95
        2
302
GRIDFORMAT
  1
GRIDFORMAT_BEGIN
 90
        0
 91
        1
 62
     0
 92
       -2
340
0
 93
        0
 40
0.045
309
GRIDFORMAT_END
 95
        4
302
GRIDFORMAT
  1
GRIDFORMAT_BEGIN
 90
        0
 91
        1
 62
     0
 92
       -2
340
0
 93
        0
 40
0.045
309
GRIDFORMAT_END
 95
        8
302
GRIDFORMAT
  1
GRIDFORMAT_BEGIN
 90
        0
 91
        1
 62
     0
 92
       -2
340
0
 93
        0
 40
0.045
309
GRIDFORMAT_END
 95
       16
302
GRIDFORMAT
  1
GRIDFORMAT_BEGIN
 90
        0
 91
        1
 62
     0
 92
       -2
340
0
 93
        0
 40
0.045
309
GRIDFORMAT_END
 95
       32
302
GRIDFORMAT
  1
GRIDFORMAT_BEGIN
 90
        0
 91
        1
 62
     0
 92
       -2
340
0
 93
        0
 40
0.045
309
GRIDFORMAT_END
309
TABLEFORMAT_END
  1
CELLSTYLE_BEGIN
 90
        3
 91
        2
300
_DATA
309
CELLSTYLE_END
  0
XRECORD
  5
185C7
102
{ACAD_REACTORS
330
9E46
102
}
330
9E46
100
AcDbXrecord
280
     1
102
ACAD_ROUNDTRIP_PRE2007_TABLESTYLE
 90
        4
 91
        0
  1

 92
        4
 93
        0
  2

 94
        4
 95
        0
  3

  0
XRECORD
  5
185D6
102
{ACAD_REACTORS
330
185D5
102
}
330
185D5
100
AcDbXrecord
280
     1
102
RTVSPost2010Prop28
280
     1
102
RTVSPost2010PropOp28
 70
     1
102
RTVSPost2010Prop29
280
     1
102
RTVSPost2010PropOp29
 70
     1
102
RTVSPost2010Prop30
280
     0
102
RTVSPost2010PropOp30
 70
     1
102
RTVSPost2010Prop31
280
     0
102
RTVSPost2010PropOp31
 70
     1
102
RTVSPost2010Prop32
280
     0
102
RTVSPost2010PropOp32
 70
     1
102
RTVSPost2010Prop33
280
     0
102
RTVSPost2010PropOp33
 70
     1
102
RTVSPost2010Prop34
280
     0
102
RTVSPost2010PropOp34
 70
     1
102
RTVSPost2010Prop35
280
     0
102
RTVSPost2010PropOp35
 70
     1
102
RTVSPost2010Prop36
280
     0
102
RTVSPost2010PropOp36
 70
     1
102
RTVSPost2010Prop37
 90
       50
102
RTVSPost2010PropOp37
 70
     1
102
RTVSPost2010Prop38
140
0.0
102
RTVSPost2010PropOp38
 70
     1
102
RTVSPost2010Prop39
140
1.0
102
RTVSPost2010PropOp39
 70
     1
102
RTVSPost2010Prop40
 90
        0
102
RTVSPost2010PropOp40
 70
     1
102
RTVSPost2010Prop41ColorIndex
 90
       18
102
RTVSPost2010Prop41ColorRGB
 90
        0
102
RTVSPost2010PropOp41
 70
     1
102
RTVSPost2010Prop42
 90
       50
102
RTVSPost2010PropOp42
 70
     1
102
RTVSPost2010Prop43
 90
        3
102
RTVSPost2010PropOp43
 70
     1
102
RTVSPost2010Prop44ColorIndex
 90
        5
102
RTVSPost2010Prop44ColorRGB
 90
      255
102
RTVSPost2010PropOp44
 70
     1
102
RTVSPost2010Prop45
280
     0
102
RTVSPost2010PropOp45
 70
     1
102
RTVSPost2010Prop46
 90
       50
102
RTVSPost2010PropOp46
 70
     1
102
RTVSPost2010Prop47
 90
       50
102
RTVSPost2010PropOp47
 70
     1
102
RTVSPost2010Prop48
 90
       50
102
RTVSPost2010PropOp48
 70
     1
102
RTVSPost2010Prop49
280
     0
102
RTVSPost2010PropOp49
 70
     1
102
RTVSPost2010Prop50
 90
       50
102
RTVSPost2010PropOp50
 70
     1
102
RTVSPost2010Prop51ColorIndex
 90
      256
102
RTVSPost2010Prop51ColorRGB
 90
-16777216
102
RTVSPost2010PropOp51
 70
     0
102
RTVSPost2010Prop52
140
1.0
102
RTVSPost2010PropOp52
 70
     0
102
RTVSPost2010Prop53
 90
        2
102
RTVSPost2010PropOp53
 70
     1
102
RTVSPost2010Prop54
  1
strokes_ogs.tif
102
RTVSPost2010PropOp54
 70
     1
102
RTVSPost2010Prop55
280
     0
102
RTVSPost2010PropOp55
 70
     1
102
RTVSPost2010Prop56
140
1.0
102
RTVSPost2010PropOp56
 70
     1
102
RTVSPost2010Prop57
140
1.0
102
RTVSPost2010PropOp57
 70
     1
102
RTVSPropertyOp0
 70
     1
102
RTVSPropertyOp1
 70
     1
102
RTVSPropertyOp2
 70
     1
102
RTVSPropertyOp3
 70
     1
102
RTVSPropertyOp4
 70
     1
102
RTVSPropertyOp5
 70
     1
102
RTVSPropertyOp6
 70
     1
102
RTVSPropertyOp7
 70
     1
102
RTVSPropertyOp8
 70
     1
102
RTVSPropertyOp9
 70
     1
102
RTVSPropertyOp10
 70
     1
102
RTVSPropertyOp11
 70
     1
102
RTVSPropertyOp12
 70
     1
102
RTVSPropertyOp13
 70
     1
102
RTVSPropertyOp14
 70
     1
102
RTVSPropertyOp15
 70
     1
102
RTVSPropertyOp16
 70
     1
102
RTVSPropertyOp17
 70
     1
102
RTVSPropertyOp18
 70
     1
102
RTVSPropertyOp19
 70
     1
102
RTVSPropertyOp20
 70
     1
102
RTVSPropertyOp21
 70
     1
102
RTVSPropertyOp22
 70
     1
102
RTVSPropertyOp23
 70
     1
102
RTVSPropertyOp24
 70
     1
102
RTVSPropertyOp25
 70
     1
102
RTVSPropertyOp26
 70
     1
102
RTVSPropertyOp27
 70
     1
102
RTVSPropertyOp28
 70
     1
102
RTVSPropertyOp29
 70
     1
102
RTVSPropertyOp30
 70
     1
102
RTVSPropertyOp31
 70
     1
102
RTVSPropertyOp32
 70
     1
102
RTVSPropertyOp33
 70
     1
102
RTVSPropertyOp34
 70
     1
102
RTVSPropertyOp35
 70
     1
102
RTVSPropertyOp36
 70
     1
102
RTVSPropertyOp37
 70
     1
102
RTVSPropertyOp38
 70
     1
102
RTVSPropertyOp39
 70
     1
102
RTVSPropertyOp40
 70
     1
102
RTVSPropertyOp41
 70
     1
102
RTVSPropertyOp42
 70
     1
102
RTVSPropertyOp43
 70
     1
102
RTVSPropertyOp44
 70
     1
102
RTVSPropertyOp45
 70
     1
102
RTVSPropertyOp46
 70
     1
102
RTVSPropertyOp47
 70
     1
102
RTVSPropertyOp48
 70
     1
102
RTVSPropertyOp49
 70
     1
102
RTVSPropertyOp50
 70
     1
102
RTVSPropertyOp51
 70
     0
102
RTVSPropertyOp52
 70
     0
102
RTVSPropertyOp53
 70
     1
102
RTVSPropertyOp54
 70
     1
102
RTVSPropertyOp55
 70
     1
102
RTVSPropertyOp56
 70
     1
102
RTVSPropertyOp57
 70
     1
102
RTVSPropertyOp58
 70
     1
102
RTVSPropertyOp59
 70
     1
102
RTVSPropertyOp60
 70
     1
102
RTVSPropertyOp61
 70
     1
102
RTVSPropertyOp62
 70
     1
  0
XRECORD
  5
185DA
102
{ACAD_REACTORS
330
185D9
102
}
330
185D9
100
AcDbXrecord
280
     1
102
RTVSPost2010Prop28
280
     0
102
RTVSPost2010PropOp28
 70
     1
102
RTVSPost2010Prop29
280
     1
102
RTVSPost2010PropOp29
 70
     1
102
RTVSPost2010Prop30
280
     1
102
RTVSPost2010PropOp30
 70
     1
102
RTVSPost2010Prop31
280
     0
102
RTVSPost2010PropOp31
 70
     1
102
RTVSPost2010Prop32
280
     0
102
RTVSPost2010PropOp32
 70
     1
102
RTVSPost2010Prop33
280
     0
102
RTVSPost2010PropOp33
 70
     1
102
RTVSPost2010Prop34
280
     0
102
RTVSPost2010PropOp34
 70
     1
102
RTVSPost2010Prop35
280
     0
102
RTVSPost2010PropOp35
 70
     1
102
RTVSPost2010Prop36
280
     0
102
RTVSPost2010PropOp36
 70
     1
102
RTVSPost2010Prop37
 90
       50
102
RTVSPost2010PropOp37
 70
     1
102
RTVSPost2010Prop38
140
0.0
102
RTVSPost2010PropOp38
 70
     1
102
RTVSPost2010Prop39
140
1.0
102
RTVSPost2010PropOp39
 70
     1
102
RTVSPost2010Prop40
 90
        0
102
RTVSPost2010PropOp40
 70
     1
102
RTVSPost2010Prop41ColorIndex
 90
       18
102
RTVSPost2010Prop41ColorRGB
 90
        0
102
RTVSPost2010PropOp41
 70
     1
102
RTVSPost2010Prop42
 90
       50
102
RTVSPost2010PropOp42
 70
     1
102
RTVSPost2010Prop43
 90
        3
102
RTVSPost2010PropOp43
 70
     1
102
RTVSPost2010Prop44ColorIndex
 90
        5
102
RTVSPost2010Prop44ColorRGB
 90
      255
102
RTVSPost2010PropOp44
 70
     1
102
RTVSPost2010Prop45
280
     0
102
RTVSPost2010PropOp45
 70
     1
102
RTVSPost2010Prop46
 90
       50
102
RTVSPost2010PropOp46
 70
     1
102
RTVSPost2010Prop47
 90
       50
102
RTVSPost2010PropOp47
 70
     1
102
RTVSPost2010Prop48
 90
       50
102
RTVSPost2010PropOp48
 70
     1
102
RTVSPost2010Prop49
280
     0
102
RTVSPost2010PropOp49
 70
     1
102
RTVSPost2010Prop50
 90
       50
102
RTVSPost2010PropOp50
 70
     1
102
RTVSPost2010Prop51ColorIndex
 90
      256
102
RTVSPost2010Prop51ColorRGB
 90
-16777216
102
RTVSPost2010PropOp51
 70
     0
102
RTVSPost2010Prop52
140
1.0
102
RTVSPost2010PropOp52
 70
     0
102
RTVSPost2010Prop53
 90
        2
102
RTVSPost2010PropOp53
 70
     1
102
RTVSPost2010Prop54
  1
strokes_ogs.tif
102
RTVSPost2010PropOp54
 70
     1
102
RTVSPost2010Prop55
280
     0
102
RTVSPost2010PropOp55
 70
     1
102
RTVSPost2010Prop56
140
1.0
102
RTVSPost2010PropOp56
 70
     1
102
RTVSPost2010Prop57
140
1.0
102
RTVSPost2010PropOp57
 70
     1
102
RTVSPropertyOp0
 70
     1
102
RTVSPropertyOp1
 70
     1
102
RTVSPropertyOp2
 70
     1
102
RTVSPropertyOp3
 70
     1
102
RTVSPropertyOp4
 70
     1
102
RTVSPropertyOp5
 70
     1
102
RTVSPropertyOp6
 70
     1
102
RTVSPropertyOp7
 70
     1
102
RTVSPropertyOp8
 70
     1
102
RTVSPropertyOp9
 70
     1
102
RTVSPropertyOp10
 70
     1
102
RTVSPropertyOp11
 70
     1
102
RTVSPropertyOp12
 70
     1
102
RTVSPropertyOp13
 70
     1
102
RTVSPropertyOp14
 70
     1
102
RTVSPropertyOp15
 70
     1
102
RTVSPropertyOp16
 70
     1
102
RTVSPropertyOp17
 70
     1
102
RTVSPropertyOp18
 70
     1
102
RTVSPropertyOp19
 70
     1
102
RTVSPropertyOp20
 70
     1
102
RTVSPropertyOp21
 70
     1
102
RTVSPropertyOp22
 70
     1
102
RTVSPropertyOp23
 70
     1
102
RTVSPropertyOp24
 70
     1
102
RTVSPropertyOp25
 70
     1
102
RTVSPropertyOp26
 70
     1
102
RTVSPropertyOp27
 70
     1
102
RTVSPropertyOp28
 70
     1
102
RTVSPropertyOp29
 70
     1
102
RTVSPropertyOp30
 70
     1
102
RTVSPropertyOp31
 70
     1
102
RTVSPropertyOp32
 70
     1
102
RTVSPropertyOp33
 70
     1
102
RTVSPropertyOp34
 70
     1
102
RTVSPropertyOp35
 70
     1
102
RTVSPropertyOp36
 70
     1
102
RTVSPropertyOp37
 70
     1
102
RTVSPropertyOp38
 70
     1
102
RTVSPropertyOp39
 70
     1
102
RTVSPropertyOp40
 70
     1
102
RTVSPropertyOp41
 70
     1
102
RTVSPropertyOp42
 70
     1
102
RTVSPropertyOp43
 70
     1
102
RTVSPropertyOp44
 70
     1
102
RTVSPropertyOp45
 70
     1
102
RTVSPropertyOp46
 70
     1
102
RTVSPropertyOp47
 70
     1
102
RTVSPropertyOp48
 70
     1
102
RTVSPropertyOp49
 70
     1
102
RTVSPropertyOp50
 70
     1
102
RTVSPropertyOp51
 70
     0
102
RTVSPropertyOp52
 70
     0
102
RTVSPropertyOp53
 70
     1
102
RTVSPropertyOp54
 70
     1
102
RTVSPropertyOp55
 70
     1
102
RTVSPropertyOp56
 70
     1
102
RTVSPropertyOp57
 70
     1
102
RTVSPropertyOp58
 70
     1
102
RTVSPropertyOp59
 70
     1
102
RTVSPropertyOp60
 70
     1
102
RTVSPropertyOp61
 70
     1
102
RTVSPropertyOp62
 70
     1
  0
XRECORD
  5
185D8
102
{ACAD_REACTORS
330
185D7
102
}
330
185D7
100
AcDbXrecord
280
     1
102
RTVSPost2010Prop28
280
     0
102
RTVSPost2010PropOp28
 70
     1
102
RTVSPost2010Prop29
280
     1
102
RTVSPost2010PropOp29
 70
     1
102
RTVSPost2010Prop30
280
     1
102
RTVSPost2010PropOp30
 70
     1
102
RTVSPost2010Prop31
280
     0
102
RTVSPost2010PropOp31
 70
     1
102
RTVSPost2010Prop32
280
     0
102
RTVSPost2010PropOp32
 70
     1
102
RTVSPost2010Prop33
280
     0
102
RTVSPost2010PropOp33
 70
     1
102
RTVSPost2010Prop34
280
     0
102
RTVSPost2010PropOp34
 70
     1
102
RTVSPost2010Prop35
280
     0
102
RTVSPost2010PropOp35
 70
     1
102
RTVSPost2010Prop36
280
     0
102
RTVSPost2010PropOp36
 70
     1
102
RTVSPost2010Prop37
 90
       50
102
RTVSPost2010PropOp37
 70
     1
102
RTVSPost2010Prop38
140
0.0
102
RTVSPost2010PropOp38
 70
     1
102
RTVSPost2010Prop39
140
1.0
102
RTVSPost2010PropOp39
 70
     1
102
RTVSPost2010Prop40
 90
        0
102
RTVSPost2010PropOp40
 70
     1
102
RTVSPost2010Prop41ColorIndex
 90
       18
102
RTVSPost2010Prop41ColorRGB
 90
        0
102
RTVSPost2010PropOp41
 70
     1
102
RTVSPost2010Prop42
 90
       50
102
RTVSPost2010PropOp42
 70
     1
102
RTVSPost2010Prop43
 90
        3
102
RTVSPost2010PropOp43
 70
     1
102
RTVSPost2010Prop44ColorIndex
 90
        5
102
RTVSPost2010Prop44ColorRGB
 90
      255
102
RTVSPost2010PropOp44
 70
     1
102
RTVSPost2010Prop45
280
     0
102
RTVSPost2010PropOp45
 70
     1
102
RTVSPost2010Prop46
 90
       50
102
RTVSPost2010PropOp46
 70
     1
102
RTVSPost2010Prop47
 90
       50
102
RTVSPost2010PropOp47
 70
     1
102
RTVSPost2010Prop48
 90
       50
102
RTVSPost2010PropOp48
 70
     1
102
RTVSPost2010Prop49
280
     0
102
RTVSPost2010PropOp49
 70
     1
102
RTVSPost2010Prop50
 90
       50
102
RTVSPost2010PropOp50
 70
     1
102
RTVSPost2010Prop51ColorIndex
 90
      256
102
RTVSPost2010Prop51ColorRGB
 90
-16777216
102
RTVSPost2010PropOp51
 70
     0
102
RTVSPost2010Prop52
140
1.0
102
RTVSPost2010PropOp52
 70
     0
102
RTVSPost2010Prop53
 90
        2
102
RTVSPost2010PropOp53
 70
     1
102
RTVSPost2010Prop54
  1
strokes_ogs.tif
102
RTVSPost2010PropOp54
 70
     1
102
RTVSPost2010Prop55
280
     0
102
RTVSPost2010PropOp55
 70
     1
102
RTVSPost2010Prop56
140
1.0
102
RTVSPost2010PropOp56
 70
     1
102
RTVSPost2010Prop57
140
1.0
102
RTVSPost2010PropOp57
 70
     1
102
RTVSPropertyOp0
 70
     1
102
RTVSPropertyOp1
 70
     1
102
RTVSPropertyOp2
 70
     1
102
RTVSPropertyOp3
 70
     1
102
RTVSPropertyOp4
 70
     1
102
RTVSPropertyOp5
 70
     1
102
RTVSPropertyOp6
 70
     1
102
RTVSPropertyOp7
 70
     1
102
RTVSPropertyOp8
 70
     1
102
RTVSPropertyOp9
 70
     1
102
RTVSPropertyOp10
 70
     1
102
RTVSPropertyOp11
 70
     1
102
RTVSPropertyOp12
 70
     1
102
RTVSPropertyOp13
 70
     1
102
RTVSPropertyOp14
 70
     1
102
RTVSPropertyOp15
 70
     1
102
RTVSPropertyOp16
 70
     1
102
RTVSPropertyOp17
 70
     1
102
RTVSPropertyOp18
 70
     1
102
RTVSPropertyOp19
 70
     1
102
RTVSPropertyOp20
 70
     1
102
RTVSPropertyOp21
 70
     1
102
RTVSPropertyOp22
 70
     1
102
RTVSPropertyOp23
 70
     1
102
RTVSPropertyOp24
 70
     1
102
RTVSPropertyOp25
 70
     1
102
RTVSPropertyOp26
 70
     1
102
RTVSPropertyOp27
 70
     1
102
RTVSPropertyOp28
 70
     1
102
RTVSPropertyOp29
 70
     1
102
RTVSPropertyOp30
 70
     1
102
RTVSPropertyOp31
 70
     1
102
RTVSPropertyOp32
 70
     1
102
RTVSPropertyOp33
 70
     1
102
RTVSPropertyOp34
 70
     1
102
RTVSPropertyOp35
 70
     1
102
RTVSPropertyOp36
 70
     1
102
RTVSPropertyOp37
 70
     1
102
RTVSPropertyOp38
 70
     1
102
RTVSPropertyOp39
 70
     1
102
RTVSPropertyOp40
 70
     1
102
RTVSPropertyOp41
 70
     1
102
RTVSPropertyOp42
 70
     1
102
RTVSPropertyOp43
 70
     1
102
RTVSPropertyOp44
 70
     1
102
RTVSPropertyOp45
 70
     1
102
RTVSPropertyOp46
 70
     1
102
RTVSPropertyOp47
 70
     1
102
RTVSPropertyOp48
 70
     1
102
RTVSPropertyOp49
 70
     1
102
RTVSPropertyOp50
 70
     1
102
RTVSPropertyOp51
 70
     0
102
RTVSPropertyOp52
 70
     0
102
RTVSPropertyOp53
 70
     1
102
RTVSPropertyOp54
 70
     1
102
RTVSPropertyOp55
 70
     1
102
RTVSPropertyOp56
 70
     1
102
RTVSPropertyOp57
 70
     1
102
RTVSPropertyOp58
 70
     1
102
RTVSPropertyOp59
 70
     1
102
RTVSPropertyOp60
 70
     1
102
RTVSPropertyOp61
 70
     1
102
RTVSPropertyOp62
 70
     1
  0
XRECORD
  5
185D4
102
{ACAD_REACTORS
330
185D3
102
}
330
185D3
100
AcDbXrecord
280
     1
102
RTVSPost2010Prop28
280
     0
102
RTVSPost2010PropOp28
 70
     1
102
RTVSPost2010Prop29
280
     1
102
RTVSPost2010PropOp29
 70
     1
102
RTVSPost2010Prop30
280
     1
102
RTVSPost2010PropOp30
 70
     1
102
RTVSPost2010Prop31
280
     0
102
RTVSPost2010PropOp31
 70
     1
102
RTVSPost2010Prop32
280
     0
102
RTVSPost2010PropOp32
 70
     1
102
RTVSPost2010Prop33
280
     0
102
RTVSPost2010PropOp33
 70
     1
102
RTVSPost2010Prop34
280
     0
102
RTVSPost2010PropOp34
 70
     1
102
RTVSPost2010Prop35
280
     0
102
RTVSPost2010PropOp35
 70
     1
102
RTVSPost2010Prop36
280
     0
102
RTVSPost2010PropOp36
 70
     1
102
RTVSPost2010Prop37
 90
       50
102
RTVSPost2010PropOp37
 70
     1
102
RTVSPost2010Prop38
140
0.0
102
RTVSPost2010PropOp38
 70
     1
102
RTVSPost2010Prop39
140
1.0
102
RTVSPost2010PropOp39
 70
     1
102
RTVSPost2010Prop40
 90
        0
102
RTVSPost2010PropOp40
 70
     1
102
RTVSPost2010Prop41ColorIndex
 90
       18
102
RTVSPost2010Prop41ColorRGB
 90
        0
102
RTVSPost2010PropOp41
 70
     1
102
RTVSPost2010Prop42
 90
       50
102
RTVSPost2010PropOp42
 70
     1
102
RTVSPost2010Prop43
 90
        3
102
RTVSPost2010PropOp43
 70
     1
102
RTVSPost2010Prop44ColorIndex
 90
        5
102
RTVSPost2010Prop44ColorRGB
 90
      255
102
RTVSPost2010PropOp44
 70
     1
102
RTVSPost2010Prop45
280
     0
102
RTVSPost2010PropOp45
 70
     1
102
RTVSPost2010Prop46
 90
       50
102
RTVSPost2010PropOp46
 70
     1
102
RTVSPost2010Prop47
 90
       50
102
RTVSPost2010PropOp47
 70
     1
102
RTVSPost2010Prop48
 90
       50
102
RTVSPost2010PropOp48
 70
     1
102
RTVSPost2010Prop49
280
     0
102
RTVSPost2010PropOp49
 70
     1
102
RTVSPost2010Prop50
 90
       50
102
RTVSPost2010PropOp50
 70
     1
102
RTVSPost2010Prop51ColorIndex
 90
      256
102
RTVSPost2010Prop51ColorRGB
 90
-16777216
102
RTVSPost2010PropOp51
 70
     0
102
RTVSPost2010Prop52
140
1.0
102
RTVSPost2010PropOp52
 70
     0
102
RTVSPost2010Prop53
 90
        2
102
RTVSPost2010PropOp53
 70
     1
102
RTVSPost2010Prop54
  1
strokes_ogs.tif
102
RTVSPost2010PropOp54
 70
     1
102
RTVSPost2010Prop55
280
     0
102
RTVSPost2010PropOp55
 70
     1
102
RTVSPost2010Prop56
140
1.0
102
RTVSPost2010PropOp56
 70
     1
102
RTVSPost2010Prop57
140
1.0
102
RTVSPost2010PropOp57
 70
     1
102
RTVSPropertyOp0
 70
     1
102
RTVSPropertyOp1
 70
     1
102
RTVSPropertyOp2
 70
     1
102
RTVSPropertyOp3
 70
     1
102
RTVSPropertyOp4
 70
     1
102
RTVSPropertyOp5
 70
     1
102
RTVSPropertyOp6
 70
     1
102
RTVSPropertyOp7
 70
     1
102
RTVSPropertyOp8
 70
     1
102
RTVSPropertyOp9
 70
     1
102
RTVSPropertyOp10
 70
     1
102
RTVSPropertyOp11
 70
     1
102
RTVSPropertyOp12
 70
     1
102
RTVSPropertyOp13
 70
     1
102
RTVSPropertyOp14
 70
     1
102
RTVSPropertyOp15
 70
     1
102
RTVSPropertyOp16
 70
     1
102
RTVSPropertyOp17
 70
     1
102
RTVSPropertyOp18
 70
     1
102
RTVSPropertyOp19
 70
     1
102
RTVSPropertyOp20
 70
     1
102
RTVSPropertyOp21
 70
     1
102
RTVSPropertyOp22
 70
     1
102
RTVSPropertyOp23
 70
     1
102
RTVSPropertyOp24
 70
     1
102
RTVSPropertyOp25
 70
     1
102
RTVSPropertyOp26
 70
     1
102
RTVSPropertyOp27
 70
     1
102
RTVSPropertyOp28
 70
     1
102
RTVSPropertyOp29
 70
     1
102
RTVSPropertyOp30
 70
     1
102
RTVSPropertyOp31
 70
     1
102
RTVSPropertyOp32
 70
     1
102
RTVSPropertyOp33
 70
     1
102
RTVSPropertyOp34
 70
     1
102
RTVSPropertyOp35
 70
     1
102
RTVSPropertyOp36
 70
     1
102
RTVSPropertyOp37
 70
     1
102
RTVSPropertyOp38
 70
     1
102
RTVSPropertyOp39
 70
     1
102
RTVSPropertyOp40
 70
     1
102
RTVSPropertyOp41
 70
     1
102
RTVSPropertyOp42
 70
     1
102
RTVSPropertyOp43
 70
     1
102
RTVSPropertyOp44
 70
     1
102
RTVSPropertyOp45
 70
     1
102
RTVSPropertyOp46
 70
     1
102
RTVSPropertyOp47
 70
     1
102
RTVSPropertyOp48
 70
     1
102
RTVSPropertyOp49
 70
     1
102
RTVSPropertyOp50
 70
     1
102
RTVSPropertyOp51
 70
     0
102
RTVSPropertyOp52
 70
     0
102
RTVSPropertyOp53
 70
     1
102
RTVSPropertyOp54
 70
     1
102
RTVSPropertyOp55
 70
     1
102
RTVSPropertyOp56
 70
     1
102
RTVSPropertyOp57
 70
     1
102
RTVSPropertyOp58
 70
     1
102
RTVSPropertyOp59
 70
     1
102
RTVSPropertyOp60
 70
     1
102
RTVSPropertyOp61
 70
     1
102
RTVSPropertyOp62
 70
     1
  0
XRECORD
  5
185E2
102
{ACAD_REACTORS
330
185E1
102
}
330
185E1
100
AcDbXrecord
280
     1
102
RTVSPost2010Prop28
280
     0
102
RTVSPost2010PropOp28
 70
     1
102
RTVSPost2010Prop29
280
     1
102
RTVSPost2010PropOp29
 70
     1
102
RTVSPost2010Prop30
280
     1
102
RTVSPost2010PropOp30
 70
     1
102
RTVSPost2010Prop31
280
     0
102
RTVSPost2010PropOp31
 70
     1
102
RTVSPost2010Prop32
280
     0
102
RTVSPost2010PropOp32
 70
     1
102
RTVSPost2010Prop33
280
     0
102
RTVSPost2010PropOp33
 70
     1
102
RTVSPost2010Prop34
280
     0
102
RTVSPost2010PropOp34
 70
     1
102
RTVSPost2010Prop35
280
     0
102
RTVSPost2010PropOp35
 70
     1
102
RTVSPost2010Prop36
280
     0
102
RTVSPost2010PropOp36
 70
     1
102
RTVSPost2010Prop37
 90
       50
102
RTVSPost2010PropOp37
 70
     1
102
RTVSPost2010Prop38
140
0.0
102
RTVSPost2010PropOp38
 70
     1
102
RTVSPost2010Prop39
140
1.0
102
RTVSPost2010PropOp39
 70
     1
102
RTVSPost2010Prop40
 90
        0
102
RTVSPost2010PropOp40
 70
     1
102
RTVSPost2010Prop41ColorIndex
 90
       18
102
RTVSPost2010Prop41ColorRGB
 90
        0
102
RTVSPost2010PropOp41
 70
     1
102
RTVSPost2010Prop42
 90
       50
102
RTVSPost2010PropOp42
 70
     1
102
RTVSPost2010Prop43
 90
        3
102
RTVSPost2010PropOp43
 70
     1
102
RTVSPost2010Prop44ColorIndex
 90
        5
102
RTVSPost2010Prop44ColorRGB
 90
      255
102
RTVSPost2010PropOp44
 70
     1
102
RTVSPost2010Prop45
280
     0
102
RTVSPost2010PropOp45
 70
     1
102
RTVSPost2010Prop46
 90
       50
102
RTVSPost2010PropOp46
 70
     1
102
RTVSPost2010Prop47
 90
       50
102
RTVSPost2010PropOp47
 70
     1
102
RTVSPost2010Prop48
 90
       50
102
RTVSPost2010PropOp48
 70
     1
102
RTVSPost2010Prop49
280
     0
102
RTVSPost2010PropOp49
 70
     1
102
RTVSPost2010Prop50
 90
       50
102
RTVSPost2010PropOp50
 70
     1
102
RTVSPost2010Prop51ColorIndex
 90
      256
102
RTVSPost2010Prop51ColorRGB
 90
-16777216
102
RTVSPost2010PropOp51
 70
     0
102
RTVSPost2010Prop52
140
1.0
102
RTVSPost2010PropOp52
 70
     0
102
RTVSPost2010Prop53
 90
        2
102
RTVSPost2010PropOp53
 70
     1
102
RTVSPost2010Prop54
  1
strokes_ogs.tif
102
RTVSPost2010PropOp54
 70
     1
102
RTVSPost2010Prop55
280
     0
102
RTVSPost2010PropOp55
 70
     1
102
RTVSPost2010Prop56
140
1.0
102
RTVSPost2010PropOp56
 70
     1
102
RTVSPost2010Prop57
140
1.0
102
RTVSPost2010PropOp57
 70
     1
102
RTVSPropertyOp0
 70
     1
102
RTVSPropertyOp1
 70
     1
102
RTVSPropertyOp2
 70
     1
102
RTVSPropertyOp3
 70
     1
102
RTVSPropertyOp4
 70
     1
102
RTVSPropertyOp5
 70
     1
102
RTVSPropertyOp6
 70
     1
102
RTVSPropertyOp7
 70
     1
102
RTVSPropertyOp8
 70
     1
102
RTVSPropertyOp9
 70
     1
102
RTVSPropertyOp10
 70
     1
102
RTVSPropertyOp11
 70
     1
102
RTVSPropertyOp12
 70
     1
102
RTVSPropertyOp13
 70
     1
102
RTVSPropertyOp14
 70
     1
102
RTVSPropertyOp15
 70
     1
102
RTVSPropertyOp16
 70
     1
102
RTVSPropertyOp17
 70
     1
102
RTVSPropertyOp18
 70
     1
102
RTVSPropertyOp19
 70
     1
102
RTVSPropertyOp20
 70
     1
102
RTVSPropertyOp21
 70
     1
102
RTVSPropertyOp22
 70
     1
102
RTVSPropertyOp23
 70
     1
102
RTVSPropertyOp24
 70
     1
102
RTVSPropertyOp25
 70
     1
102
RTVSPropertyOp26
 70
     1
102
RTVSPropertyOp27
 70
     1
102
RTVSPropertyOp28
 70
     1
102
RTVSPropertyOp29
 70
     1
102
RTVSPropertyOp30
 70
     1
102
RTVSPropertyOp31
 70
     1
102
RTVSPropertyOp32
 70
     1
102
RTVSPropertyOp33
 70
     1
102
RTVSPropertyOp34
 70
     1
102
RTVSPropertyOp35
 70
     1
102
RTVSPropertyOp36
 70
     1
102
RTVSPropertyOp37
 70
     1
102
RTVSPropertyOp38
 70
     1
102
RTVSPropertyOp39
 70
     1
102
RTVSPropertyOp40
 70
     1
102
RTVSPropertyOp41
 70
     1
102
RTVSPropertyOp42
 70
     1
102
RTVSPropertyOp43
 70
     1
102
RTVSPropertyOp44
 70
     1
102
RTVSPropertyOp45
 70
     1
102
RTVSPropertyOp46
 70
     1
102
RTVSPropertyOp47
 70
     1
102
RTVSPropertyOp48
 70
     1
102
RTVSPropertyOp49
 70
     1
102
RTVSPropertyOp50
 70
     1
102
RTVSPropertyOp51
 70
     0
102
RTVSPropertyOp52
 70
     0
102
RTVSPropertyOp53
 70
     1
102
RTVSPropertyOp54
 70
     1
102
RTVSPropertyOp55
 70
     1
102
RTVSPropertyOp56
 70
     1
102
RTVSPropertyOp57
 70
     1
102
RTVSPropertyOp58
 70
     1
102
RTVSPropertyOp59
 70
     1
102
RTVSPropertyOp60
 70
     1
102
RTVSPropertyOp61
 70
     1
102
RTVSPropertyOp62
 70
     1
  0
XRECORD
  5
185EA
102
{ACAD_REACTORS
330
185E9
102
}
330
185E9
100
AcDbXrecord
280
     1
102
RTVSPost2010Prop28
280
     0
102
RTVSPost2010PropOp28
 70
     1
102
RTVSPost2010Prop29
280
     1
102
RTVSPost2010PropOp29
 70
     1
102
RTVSPost2010Prop30
280
     1
102
RTVSPost2010PropOp30
 70
     1
102
RTVSPost2010Prop31
280
     0
102
RTVSPost2010PropOp31
 70
     1
102
RTVSPost2010Prop32
280
     0
102
RTVSPost2010PropOp32
 70
     1
102
RTVSPost2010Prop33
280
     0
102
RTVSPost2010PropOp33
 70
     1
102
RTVSPost2010Prop34
280
     0
102
RTVSPost2010PropOp34
 70
     1
102
RTVSPost2010Prop35
280
     0
102
RTVSPost2010PropOp35
 70
     1
102
RTVSPost2010Prop36
280
     0
102
RTVSPost2010PropOp36
 70
     1
102
RTVSPost2010Prop37
 90
       50
102
RTVSPost2010PropOp37
 70
     1
102
RTVSPost2010Prop38
140
0.0
102
RTVSPost2010PropOp38
 70
     1
102
RTVSPost2010Prop39
140
1.0
102
RTVSPost2010PropOp39
 70
     1
102
RTVSPost2010Prop40
 90
        0
102
RTVSPost2010PropOp40
 70
     1
102
RTVSPost2010Prop41ColorIndex
 90
       18
102
RTVSPost2010Prop41ColorRGB
 90
        0
102
RTVSPost2010PropOp41
 70
     1
102
RTVSPost2010Prop42
 90
       50
102
RTVSPost2010PropOp42
 70
     1
102
RTVSPost2010Prop43
 90
        3
102
RTVSPost2010PropOp43
 70
     1
102
RTVSPost2010Prop44ColorIndex
 90
        5
102
RTVSPost2010Prop44ColorRGB
 90
      255
102
RTVSPost2010PropOp44
 70
     1
102
RTVSPost2010Prop45
280
     0
102
RTVSPost2010PropOp45
 70
     1
102
RTVSPost2010Prop46
 90
       50
102
RTVSPost2010PropOp46
 70
     1
102
RTVSPost2010Prop47
 90
       50
102
RTVSPost2010PropOp47
 70
     1
102
RTVSPost2010Prop48
 90
       50
102
RTVSPost2010PropOp48
 70
     1
102
RTVSPost2010Prop49
280
     0
102
RTVSPost2010PropOp49
 70
     1
102
RTVSPost2010Prop50
 90
       50
102
RTVSPost2010PropOp50
 70
     1
102
RTVSPost2010Prop51ColorIndex
 90
      256
102
RTVSPost2010Prop51ColorRGB
 90
-16777216
102
RTVSPost2010PropOp51
 70
     0
102
RTVSPost2010Prop52
140
1.0
102
RTVSPost2010PropOp52
 70
     0
102
RTVSPost2010Prop53
 90
        2
102
RTVSPost2010PropOp53
 70
     1
102
RTVSPost2010Prop54
  1
strokes_ogs.tif
102
RTVSPost2010PropOp54
 70
     1
102
RTVSPost2010Prop55
280
     0
102
RTVSPost2010PropOp55
 70
     1
102
RTVSPost2010Prop56
140
1.0
102
RTVSPost2010PropOp56
 70
     1
102
RTVSPost2010Prop57
140
1.0
102
RTVSPost2010PropOp57
 70
     1
102
RTVSPropertyOp0
 70
     1
102
RTVSPropertyOp1
 70
     1
102
RTVSPropertyOp2
 70
     1
102
RTVSPropertyOp3
 70
     1
102
RTVSPropertyOp4
 70
     1
102
RTVSPropertyOp5
 70
     1
102
RTVSPropertyOp6
 70
     1
102
RTVSPropertyOp7
 70
     1
102
RTVSPropertyOp8
 70
     1
102
RTVSPropertyOp9
 70
     1
102
RTVSPropertyOp10
 70
     1
102
RTVSPropertyOp11
 70
     1
102
RTVSPropertyOp12
 70
     1
102
RTVSPropertyOp13
 70
     1
102
RTVSPropertyOp14
 70
     1
102
RTVSPropertyOp15
 70
     1
102
RTVSPropertyOp16
 70
     1
102
RTVSPropertyOp17
 70
     1
102
RTVSPropertyOp18
 70
     1
102
RTVSPropertyOp19
 70
     1
102
RTVSPropertyOp20
 70
     1
102
RTVSPropertyOp21
 70
     1
102
RTVSPropertyOp22
 70
     1
102
RTVSPropertyOp23
 70
     1
102
RTVSPropertyOp24
 70
     1
102
RTVSPropertyOp25
 70
     1
102
RTVSPropertyOp26
 70
     1
102
RTVSPropertyOp27
 70
     1
102
RTVSPropertyOp28
 70
     1
102
RTVSPropertyOp29
 70
     1
102
RTVSPropertyOp30
 70
     1
102
RTVSPropertyOp31
 70
     1
102
RTVSPropertyOp32
 70
     1
102
RTVSPropertyOp33
 70
     1
102
RTVSPropertyOp34
 70
     1
102
RTVSPropertyOp35
 70
     1
102
RTVSPropertyOp36
 70
     1
102
RTVSPropertyOp37
 70
     1
102
RTVSPropertyOp38
 70
     1
102
RTVSPropertyOp39
 70
     1
102
RTVSPropertyOp40
 70
     1
102
RTVSPropertyOp41
 70
     1
102
RTVSPropertyOp42
 70
     1
102
RTVSPropertyOp43
 70
     1
102
RTVSPropertyOp44
 70
     1
102
RTVSPropertyOp45
 70
     1
102
RTVSPropertyOp46
 70
     1
102
RTVSPropertyOp47
 70
     1
102
RTVSPropertyOp48
 70
     1
102
RTVSPropertyOp49
 70
     1
102
RTVSPropertyOp50
 70
     1
102
RTVSPropertyOp51
 70
     0
102
RTVSPropertyOp52
 70
     0
102
RTVSPropertyOp53
 70
     1
102
RTVSPropertyOp54
 70
     1
102
RTVSPropertyOp55
 70
     1
102
RTVSPropertyOp56
 70
     1
102
RTVSPropertyOp57
 70
     1
102
RTVSPropertyOp58
 70
     1
102
RTVSPropertyOp59
 70
     1
102
RTVSPropertyOp60
 70
     1
102
RTVSPropertyOp61
 70
     1
102
RTVSPropertyOp62
 70
     1
  0
XRECORD
  5
185DC
102
{ACAD_REACTORS
330
185DB
102
}
330
185DB
100
AcDbXrecord
280
     1
102
RTVSPost2010Prop28
280
     0
102
RTVSPost2010PropOp28
 70
     1
102
RTVSPost2010Prop29
280
     1
102
RTVSPost2010PropOp29
 70
     1
102
RTVSPost2010Prop30
280
     1
102
RTVSPost2010PropOp30
 70
     1
102
RTVSPost2010Prop31
280
     0
102
RTVSPost2010PropOp31
 70
     1
102
RTVSPost2010Prop32
280
     0
102
RTVSPost2010PropOp32
 70
     1
102
RTVSPost2010Prop33
280
     0
102
RTVSPost2010PropOp33
 70
     1
102
RTVSPost2010Prop34
280
     0
102
RTVSPost2010PropOp34
 70
     1
102
RTVSPost2010Prop35
280
     0
102
RTVSPost2010PropOp35
 70
     1
102
RTVSPost2010Prop36
280
     0
102
RTVSPost2010PropOp36
 70
     1
102
RTVSPost2010Prop37
 90
       50
102
RTVSPost2010PropOp37
 70
     1
102
RTVSPost2010Prop38
140
0.0
102
RTVSPost2010PropOp38
 70
     1
102
RTVSPost2010Prop39
140
1.0
102
RTVSPost2010PropOp39
 70
     1
102
RTVSPost2010Prop40
 90
        0
102
RTVSPost2010PropOp40
 70
     1
102
RTVSPost2010Prop41ColorIndex
 90
       18
102
RTVSPost2010Prop41ColorRGB
 90
        0
102
RTVSPost2010PropOp41
 70
     1
102
RTVSPost2010Prop42
 90
       50
102
RTVSPost2010PropOp42
 70
     1
102
RTVSPost2010Prop43
 90
        3
102
RTVSPost2010PropOp43
 70
     1
102
RTVSPost2010Prop44ColorIndex
 90
        5
102
RTVSPost2010Prop44ColorRGB
 90
      255
102
RTVSPost2010PropOp44
 70
     1
102
RTVSPost2010Prop45
280
     0
102
RTVSPost2010PropOp45
 70
     1
102
RTVSPost2010Prop46
 90
       50
102
RTVSPost2010PropOp46
 70
     1
102
RTVSPost2010Prop47
 90
       50
102
RTVSPost2010PropOp47
 70
     1
102
RTVSPost2010Prop48
 90
       50
102
RTVSPost2010PropOp48
 70
     1
102
RTVSPost2010Prop49
280
     0
102
RTVSPost2010PropOp49
 70
     1
102
RTVSPost2010Prop50
 90
       50
102
RTVSPost2010PropOp50
 70
     1
102
RTVSPost2010Prop51ColorIndex
 90
      256
102
RTVSPost2010Prop51ColorRGB
 90
-16777216
102
RTVSPost2010PropOp51
 70
     0
102
RTVSPost2010Prop52
140
1.0
102
RTVSPost2010PropOp52
 70
     0
102
RTVSPost2010Prop53
 90
        2
102
RTVSPost2010PropOp53
 70
     1
102
RTVSPost2010Prop54
  1
strokes_ogs.tif
102
RTVSPost2010PropOp54
 70
     1
102
RTVSPost2010Prop55
280
     0
102
RTVSPost2010PropOp55
 70
     1
102
RTVSPost2010Prop56
140
1.0
102
RTVSPost2010PropOp56
 70
     1
102
RTVSPost2010Prop57
140
1.0
102
RTVSPost2010PropOp57
 70
     1
102
RTVSPropertyOp0
 70
     1
102
RTVSPropertyOp1
 70
     1
102
RTVSPropertyOp2
 70
     1
102
RTVSPropertyOp3
 70
     1
102
RTVSPropertyOp4
 70
     1
102
RTVSPropertyOp5
 70
     1
102
RTVSPropertyOp6
 70
     1
102
RTVSPropertyOp7
 70
     1
102
RTVSPropertyOp8
 70
     1
102
RTVSPropertyOp9
 70
     1
102
RTVSPropertyOp10
 70
     1
102
RTVSPropertyOp11
 70
     1
102
RTVSPropertyOp12
 70
     1
102
RTVSPropertyOp13
 70
     1
102
RTVSPropertyOp14
 70
     1
102
RTVSPropertyOp15
 70
     1
102
RTVSPropertyOp16
 70
     1
102
RTVSPropertyOp17
 70
     1
102
RTVSPropertyOp18
 70
     1
102
RTVSPropertyOp19
 70
     1
102
RTVSPropertyOp20
 70
     1
102
RTVSPropertyOp21
 70
     1
102
RTVSPropertyOp22
 70
     1
102
RTVSPropertyOp23
 70
     1
102
RTVSPropertyOp24
 70
     1
102
RTVSPropertyOp25
 70
     1
102
RTVSPropertyOp26
 70
     1
102
RTVSPropertyOp27
 70
     1
102
RTVSPropertyOp28
 70
     1
102
RTVSPropertyOp29
 70
     1
102
RTVSPropertyOp30
 70
     1
102
RTVSPropertyOp31
 70
     1
102
RTVSPropertyOp32
 70
     1
102
RTVSPropertyOp33
 70
     1
102
RTVSPropertyOp34
 70
     1
102
RTVSPropertyOp35
 70
     1
102
RTVSPropertyOp36
 70
     1
102
RTVSPropertyOp37
 70
     1
102
RTVSPropertyOp38
 70
     1
102
RTVSPropertyOp39
 70
     1
102
RTVSPropertyOp40
 70
     1
102
RTVSPropertyOp41
 70
     1
102
RTVSPropertyOp42
 70
     1
102
RTVSPropertyOp43
 70
     1
102
RTVSPropertyOp44
 70
     1
102
RTVSPropertyOp45
 70
     1
102
RTVSPropertyOp46
 70
     1
102
RTVSPropertyOp47
 70
     1
102
RTVSPropertyOp48
 70
     1
102
RTVSPropertyOp49
 70
     1
102
RTVSPropertyOp50
 70
     1
102
RTVSPropertyOp51
 70
     0
102
RTVSPropertyOp52
 70
     0
102
RTVSPropertyOp53
 70
     1
102
RTVSPropertyOp54
 70
     1
102
RTVSPropertyOp55
 70
     1
102
RTVSPropertyOp56
 70
     1
102
RTVSPropertyOp57
 70
     1
102
RTVSPropertyOp58
 70
     1
102
RTVSPropertyOp59
 70
     1
102
RTVSPropertyOp60
 70
     1
102
RTVSPropertyOp61
 70
     1
102
RTVSPropertyOp62
 70
     1
  0
XRECORD
  5
185E0
102
{ACAD_REACTORS
330
185DF
102
}
330
185DF
100
AcDbXrecord
280
     1
102
RTVSPost2010Prop28
280
     0
102
RTVSPost2010PropOp28
 70
     1
102
RTVSPost2010Prop29
280
     1
102
RTVSPost2010PropOp29
 70
     1
102
RTVSPost2010Prop30
280
     1
102
RTVSPost2010PropOp30
 70
     1
102
RTVSPost2010Prop31
280
     0
102
RTVSPost2010PropOp31
 70
     1
102
RTVSPost2010Prop32
280
     0
102
RTVSPost2010PropOp32
 70
     1
102
RTVSPost2010Prop33
280
     0
102
RTVSPost2010PropOp33
 70
     1
102
RTVSPost2010Prop34
280
     0
102
RTVSPost2010PropOp34
 70
     1
102
RTVSPost2010Prop35
280
     0
102
RTVSPost2010PropOp35
 70
     1
102
RTVSPost2010Prop36
280
     0
102
RTVSPost2010PropOp36
 70
     1
102
RTVSPost2010Prop37
 90
       50
102
RTVSPost2010PropOp37
 70
     1
102
RTVSPost2010Prop38
140
0.0
102
RTVSPost2010PropOp38
 70
     1
102
RTVSPost2010Prop39
140
1.0
102
RTVSPost2010PropOp39
 70
     1
102
RTVSPost2010Prop40
 90
        0
102
RTVSPost2010PropOp40
 70
     1
102
RTVSPost2010Prop41ColorIndex
 90
       18
102
RTVSPost2010Prop41ColorRGB
 90
        0
102
RTVSPost2010PropOp41
 70
     1
102
RTVSPost2010Prop42
 90
       50
102
RTVSPost2010PropOp42
 70
     1
102
RTVSPost2010Prop43
 90
        3
102
RTVSPost2010PropOp43
 70
     1
102
RTVSPost2010Prop44ColorIndex
 90
        5
102
RTVSPost2010Prop44ColorRGB
 90
      255
102
RTVSPost2010PropOp44
 70
     1
102
RTVSPost2010Prop45
280
     0
102
RTVSPost2010PropOp45
 70
     1
102
RTVSPost2010Prop46
 90
       50
102
RTVSPost2010PropOp46
 70
     1
102
RTVSPost2010Prop47
 90
       50
102
RTVSPost2010PropOp47
 70
     1
102
RTVSPost2010Prop48
 90
       50
102
RTVSPost2010PropOp48
 70
     1
102
RTVSPost2010Prop49
280
     0
102
RTVSPost2010PropOp49
 70
     1
102
RTVSPost2010Prop50
 90
       50
102
RTVSPost2010PropOp50
 70
     1
102
RTVSPost2010Prop51ColorIndex
 90
      256
102
RTVSPost2010Prop51ColorRGB
 90
-16777216
102
RTVSPost2010PropOp51
 70
     0
102
RTVSPost2010Prop52
140
1.0
102
RTVSPost2010PropOp52
 70
     0
102
RTVSPost2010Prop53
 90
        2
102
RTVSPost2010PropOp53
 70
     1
102
RTVSPost2010Prop54
  1
strokes_ogs.tif
102
RTVSPost2010PropOp54
 70
     1
102
RTVSPost2010Prop55
280
     0
102
RTVSPost2010PropOp55
 70
     1
102
RTVSPost2010Prop56
140
1.0
102
RTVSPost2010PropOp56
 70
     1
102
RTVSPost2010Prop57
140
1.0
102
RTVSPost2010PropOp57
 70
     1
102
RTVSPropertyOp0
 70
     1
102
RTVSPropertyOp1
 70
     1
102
RTVSPropertyOp2
 70
     1
102
RTVSPropertyOp3
 70
     1
102
RTVSPropertyOp4
 70
     1
102
RTVSPropertyOp5
 70
     1
102
RTVSPropertyOp6
 70
     1
102
RTVSPropertyOp7
 70
     1
102
RTVSPropertyOp8
 70
     1
102
RTVSPropertyOp9
 70
     1
102
RTVSPropertyOp10
 70
     1
102
RTVSPropertyOp11
 70
     1
102
RTVSPropertyOp12
 70
     1
102
RTVSPropertyOp13
 70
     1
102
RTVSPropertyOp14
 70
     1
102
RTVSPropertyOp15
 70
     1
102
RTVSPropertyOp16
 70
     1
102
RTVSPropertyOp17
 70
     1
102
RTVSPropertyOp18
 70
     1
102
RTVSPropertyOp19
 70
     1
102
RTVSPropertyOp20
 70
     1
102
RTVSPropertyOp21
 70
     1
102
RTVSPropertyOp22
 70
     1
102
RTVSPropertyOp23
 70
     1
102
RTVSPropertyOp24
 70
     1
102
RTVSPropertyOp25
 70
     1
102
RTVSPropertyOp26
 70
     1
102
RTVSPropertyOp27
 70
     1
102
RTVSPropertyOp28
 70
     1
102
RTVSPropertyOp29
 70
     1
102
RTVSPropertyOp30
 70
     1
102
RTVSPropertyOp31
 70
     1
102
RTVSPropertyOp32
 70
     1
102
RTVSPropertyOp33
 70
     1
102
RTVSPropertyOp34
 70
     1
102
RTVSPropertyOp35
 70
     1
102
RTVSPropertyOp36
 70
     1
102
RTVSPropertyOp37
 70
     1
102
RTVSPropertyOp38
 70
     1
102
RTVSPropertyOp39
 70
     1
102
RTVSPropertyOp40
 70
     1
102
RTVSPropertyOp41
 70
     1
102
RTVSPropertyOp42
 70
     1
102
RTVSPropertyOp43
 70
     1
102
RTVSPropertyOp44
 70
     1
102
RTVSPropertyOp45
 70
     1
102
RTVSPropertyOp46
 70
     1
102
RTVSPropertyOp47
 70
     1
102
RTVSPropertyOp48
 70
     1
102
RTVSPropertyOp49
 70
     1
102
RTVSPropertyOp50
 70
     1
102
RTVSPropertyOp51
 70
     0
102
RTVSPropertyOp52
 70
     0
102
RTVSPropertyOp53
 70
     1
102
RTVSPropertyOp54
 70
     1
102
RTVSPropertyOp55
 70
     1
102
RTVSPropertyOp56
 70
     1
102
RTVSPropertyOp57
 70
     1
102
RTVSPropertyOp58
 70
     1
102
RTVSPropertyOp59
 70
     1
102
RTVSPropertyOp60
 70
     1
102
RTVSPropertyOp61
 70
     1
102
RTVSPropertyOp62
 70
     1
  0
XRECORD
  5
185FE
102
{ACAD_REACTORS
330
185FD
102
}
330
185FD
100
AcDbXrecord
280
     1
102
RTVSPost2010Prop28
280
     0
102
RTVSPost2010PropOp28
 70
     0
102
RTVSPost2010Prop29
280
     1
102
RTVSPost2010PropOp29
 70
     0
102
RTVSPost2010Prop30
280
     1
102
RTVSPost2010PropOp30
 70
     0
102
RTVSPost2010Prop31
280
     0
102
RTVSPost2010PropOp31
 70
     0
102
RTVSPost2010Prop32
280
     0
102
RTVSPost2010PropOp32
 70
     0
102
RTVSPost2010Prop33
280
     0
102
RTVSPost2010PropOp33
 70
     0
102
RTVSPost2010Prop34
280
     0
102
RTVSPost2010PropOp34
 70
     0
102
RTVSPost2010Prop35
280
     0
102
RTVSPost2010PropOp35
 70
     0
102
RTVSPost2010Prop36
280
     0
102
RTVSPost2010PropOp36
 70
     0
102
RTVSPost2010Prop37
 90
       50
102
RTVSPost2010PropOp37
 70
     0
102
RTVSPost2010Prop38
140
0.0
102
RTVSPost2010PropOp38
 70
     0
102
RTVSPost2010Prop39
140
1.0
102
RTVSPost2010PropOp39
 70
     0
102
RTVSPost2010Prop40
 90
        0
102
RTVSPost2010PropOp40
 70
     0
102
RTVSPost2010Prop41ColorIndex
 90
       18
102
RTVSPost2010Prop41ColorRGB
 90
        0
102
RTVSPost2010PropOp41
 70
     0
102
RTVSPost2010Prop42
 90
       50
102
RTVSPost2010PropOp42
 70
     0
102
RTVSPost2010Prop43
 90
        3
102
RTVSPost2010PropOp43
 70
     0
102
RTVSPost2010Prop44ColorIndex
 90
        5
102
RTVSPost2010Prop44ColorRGB
 90
      255
102
RTVSPost2010PropOp44
 70
     0
102
RTVSPost2010Prop45
280
     0
102
RTVSPost2010PropOp45
 70
     0
102
RTVSPost2010Prop46
 90
       50
102
RTVSPost2010PropOp46
 70
     0
102
RTVSPost2010Prop47
 90
       50
102
RTVSPost2010PropOp47
 70
     0
102
RTVSPost2010Prop48
 90
       50
102
RTVSPost2010PropOp48
 70
     0
102
RTVSPost2010Prop49
280
     0
102
RTVSPost2010PropOp49
 70
     0
102
RTVSPost2010Prop50
 90
       50
102
RTVSPost2010PropOp50
 70
     0
102
RTVSPost2010Prop51ColorIndex
 90
      256
102
RTVSPost2010Prop51ColorRGB
 90
-16777216
102
RTVSPost2010PropOp51
 70
     0
102
RTVSPost2010Prop52
140
1.0
102
RTVSPost2010PropOp52
 70
     0
102
RTVSPost2010Prop53
 90
        2
102
RTVSPost2010PropOp53
 70
     0
102
RTVSPost2010Prop54
  1
strokes_ogs.tif
102
RTVSPost2010PropOp54
 70
     0
102
RTVSPost2010Prop55
280
     0
102
RTVSPost2010PropOp55
 70
     0
102
RTVSPost2010Prop56
140
1.0
102
RTVSPost2010PropOp56
 70
     0
102
RTVSPost2010Prop57
140
1.0
102
RTVSPost2010PropOp57
 70
     0
102
RTVSPropertyOp0
 70
     0
102
RTVSPropertyOp1
 70
     0
102
RTVSPropertyOp2
 70
     0
102
RTVSPropertyOp3
 70
     0
102
RTVSPropertyOp4
 70
     0
102
RTVSPropertyOp5
 70
     0
102
RTVSPropertyOp6
 70
     0
102
RTVSPropertyOp7
 70
     0
102
RTVSPropertyOp8
 70
     0
102
RTVSPropertyOp9
 70
     0
102
RTVSPropertyOp10
 70
     0
102
RTVSPropertyOp11
 70
     0
102
RTVSPropertyOp12
 70
     0
102
RTVSPropertyOp13
 70
     0
102
RTVSPropertyOp14
 70
     2
102
RTVSPropertyOp15
 70
     0
102
RTVSPropertyOp16
 70
     0
102
RTVSPropertyOp17
 70
     0
102
RTVSPropertyOp18
 70
     0
102
RTVSPropertyOp19
 70
     0
102
RTVSPropertyOp20
 70
     0
102
RTVSPropertyOp21
 70
     0
102
RTVSPropertyOp22
 70
     0
102
RTVSPropertyOp23
 70
     0
102
RTVSPropertyOp24
 70
     0
102
RTVSPropertyOp25
 70
     0
102
RTVSPropertyOp26
 70
     0
102
RTVSPropertyOp27
 70
     0
102
RTVSPropertyOp28
 70
     0
102
RTVSPropertyOp29
 70
     0
102
RTVSPropertyOp30
 70
     0
102
RTVSPropertyOp31
 70
     0
102
RTVSPropertyOp32
 70
     0
102
RTVSPropertyOp33
 70
     0
102
RTVSPropertyOp34
 70
     0
102
RTVSPropertyOp35
 70
     0
102
RTVSPropertyOp36
 70
     0
102
RTVSPropertyOp37
 70
     0
102
RTVSPropertyOp38
 70
     0
102
RTVSPropertyOp39
 70
     0
102
RTVSPropertyOp40
 70
     0
102
RTVSPropertyOp41
 70
     0
102
RTVSPropertyOp42
 70
     0
102
RTVSPropertyOp43
 70
     0
102
RTVSPropertyOp44
 70
     0
102
RTVSPropertyOp45
 70
     0
102
RTVSPropertyOp46
 70
     0
102
RTVSPropertyOp47
 70
     0
102
RTVSPropertyOp48
 70
     0
102
RTVSPropertyOp49
 70
     0
102
RTVSPropertyOp50
 70
     0
102
RTVSPropertyOp51
 70
     0
102
RTVSPropertyOp52
 70
     0
102
RTVSPropertyOp53
 70
     0
102
RTVSPropertyOp54
 70
     0
102
RTVSPropertyOp55
 70
     0
102
RTVSPropertyOp56
 70
     0
102
RTVSPropertyOp57
 70
     0
102
RTVSPropertyOp58
 70
     1
102
RTVSPropertyOp59
 70
     1
102
RTVSPropertyOp60
 70
     1
102
RTVSPropertyOp61
 70
     1
102
RTVSPropertyOp62
 70
     1
  0
XRECORD
  5
185E8
102
{ACAD_REACTORS
330
185E7
102
}
330
185E7
100
AcDbXrecord
280
     1
102
RTVSPost2010Prop28
280
     0
102
RTVSPost2010PropOp28
 70
     1
102
RTVSPost2010Prop29
280
     1
102
RTVSPost2010PropOp29
 70
     1
102
RTVSPost2010Prop30
280
     1
102
RTVSPost2010PropOp30
 70
     1
102
RTVSPost2010Prop31
280
     0
102
RTVSPost2010PropOp31
 70
     1
102
RTVSPost2010Prop32
280
     0
102
RTVSPost2010PropOp32
 70
     1
102
RTVSPost2010Prop33
280
     0
102
RTVSPost2010PropOp33
 70
     1
102
RTVSPost2010Prop34
280
     0
102
RTVSPost2010PropOp34
 70
     1
102
RTVSPost2010Prop35
280
     0
102
RTVSPost2010PropOp35
 70
     1
102
RTVSPost2010Prop36
280
     0
102
RTVSPost2010PropOp36
 70
     1
102
RTVSPost2010Prop37
 90
       50
102
RTVSPost2010PropOp37
 70
     1
102
RTVSPost2010Prop38
140
0.0
102
RTVSPost2010PropOp38
 70
     1
102
RTVSPost2010Prop39
140
1.0
102
RTVSPost2010PropOp39
 70
     1
102
RTVSPost2010Prop40
 90
        0
102
RTVSPost2010PropOp40
 70
     1
102
RTVSPost2010Prop41ColorIndex
 90
       18
102
RTVSPost2010Prop41ColorRGB
 90
        0
102
RTVSPost2010PropOp41
 70
     1
102
RTVSPost2010Prop42
 90
       50
102
RTVSPost2010PropOp42
 70
     1
102
RTVSPost2010Prop43
 90
        3
102
RTVSPost2010PropOp43
 70
     1
102
RTVSPost2010Prop44ColorIndex
 90
        5
102
RTVSPost2010Prop44ColorRGB
 90
      255
102
RTVSPost2010PropOp44
 70
     1
102
RTVSPost2010Prop45
280
     0
102
RTVSPost2010PropOp45
 70
     1
102
RTVSPost2010Prop46
 90
       50
102
RTVSPost2010PropOp46
 70
     1
102
RTVSPost2010Prop47
 90
       50
102
RTVSPost2010PropOp47
 70
     1
102
RTVSPost2010Prop48
 90
       50
102
RTVSPost2010PropOp48
 70
     1
102
RTVSPost2010Prop49
280
     0
102
RTVSPost2010PropOp49
 70
     1
102
RTVSPost2010Prop50
 90
       50
102
RTVSPost2010PropOp50
 70
     1
102
RTVSPost2010Prop51ColorIndex
 90
      256
102
RTVSPost2010Prop51ColorRGB
 90
-16777216
102
RTVSPost2010PropOp51
 70
     0
102
RTVSPost2010Prop52
140
1.0
102
RTVSPost2010PropOp52
 70
     0
102
RTVSPost2010Prop53
 90
        2
102
RTVSPost2010PropOp53
 70
     1
102
RTVSPost2010Prop54
  1
strokes_ogs.tif
102
RTVSPost2010PropOp54
 70
     1
102
RTVSPost2010Prop55
280
     0
102
RTVSPost2010PropOp55
 70
     1
102
RTVSPost2010Prop56
140
1.0
102
RTVSPost2010PropOp56
 70
     1
102
RTVSPost2010Prop57
140
1.0
102
RTVSPost2010PropOp57
 70
     1
102
RTVSPropertyOp0
 70
     1
102
RTVSPropertyOp1
 70
     1
102
RTVSPropertyOp2
 70
     1
102
RTVSPropertyOp3
 70
     1
102
RTVSPropertyOp4
 70
     1
102
RTVSPropertyOp5
 70
     1
102
RTVSPropertyOp6
 70
     1
102
RTVSPropertyOp7
 70
     1
102
RTVSPropertyOp8
 70
     1
102
RTVSPropertyOp9
 70
     1
102
RTVSPropertyOp10
 70
     1
102
RTVSPropertyOp11
 70
     1
102
RTVSPropertyOp12
 70
     1
102
RTVSPropertyOp13
 70
     1
102
RTVSPropertyOp14
 70
     1
102
RTVSPropertyOp15
 70
     1
102
RTVSPropertyOp16
 70
     1
102
RTVSPropertyOp17
 70
     1
102
RTVSPropertyOp18
 70
     1
102
RTVSPropertyOp19
 70
     1
102
RTVSPropertyOp20
 70
     1
102
RTVSPropertyOp21
 70
     1
102
RTVSPropertyOp22
 70
     1
102
RTVSPropertyOp23
 70
     1
102
RTVSPropertyOp24
 70
     1
102
RTVSPropertyOp25
 70
     1
102
RTVSPropertyOp26
 70
     1
102
RTVSPropertyOp27
 70
     1
102
RTVSPropertyOp28
 70
     1
102
RTVSPropertyOp29
 70
     1
102
RTVSPropertyOp30
 70
     1
102
RTVSPropertyOp31
 70
     1
102
RTVSPropertyOp32
 70
     1
102
RTVSPropertyOp33
 70
     1
102
RTVSPropertyOp34
 70
     1
102
RTVSPropertyOp35
 70
     1
102
RTVSPropertyOp36
 70
     1
102
RTVSPropertyOp37
 70
     1
102
RTVSPropertyOp38
 70
     1
102
RTVSPropertyOp39
 70
     1
102
RTVSPropertyOp40
 70
     1
102
RTVSPropertyOp41
 70
     1
102
RTVSPropertyOp42
 70
     1
102
RTVSPropertyOp43
 70
     1
102
RTVSPropertyOp44
 70
     1
102
RTVSPropertyOp45
 70
     1
102
RTVSPropertyOp46
 70
     1
102
RTVSPropertyOp47
 70
     1
102
RTVSPropertyOp48
 70
     1
102
RTVSPropertyOp49
 70
     1
102
RTVSPropertyOp50
 70
     1
102
RTVSPropertyOp51
 70
     0
102
RTVSPropertyOp52
 70
     0
102
RTVSPropertyOp53
 70
     1
102
RTVSPropertyOp54
 70
     1
102
RTVSPropertyOp55
 70
     1
102
RTVSPropertyOp56
 70
     1
102
RTVSPropertyOp57
 70
     1
102
RTVSPropertyOp58
 70
     1
102
RTVSPropertyOp59
 70
     1
102
RTVSPropertyOp60
 70
     1
102
RTVSPropertyOp61
 70
     1
102
RTVSPropertyOp62
 70
     1
  0
XRECORD
  5
185CC
102
{ACAD_REACTORS
330
185CB
102
}
330
185CB
100
AcDbXrecord
280
     1
102
RTVSPost2010Prop28
280
     0
102
RTVSPost2010PropOp28
 70
     1
102
RTVSPost2010Prop29
280
     1
102
RTVSPost2010PropOp29
 70
     1
102
RTVSPost2010Prop30
280
     1
102
RTVSPost2010PropOp30
 70
     1
102
RTVSPost2010Prop31
280
     0
102
RTVSPost2010PropOp31
 70
     1
102
RTVSPost2010Prop32
280
     0
102
RTVSPost2010PropOp32
 70
     1
102
RTVSPost2010Prop33
280
     0
102
RTVSPost2010PropOp33
 70
     1
102
RTVSPost2010Prop34
280
     0
102
RTVSPost2010PropOp34
 70
     1
102
RTVSPost2010Prop35
280
     0
102
RTVSPost2010PropOp35
 70
     1
102
RTVSPost2010Prop36
280
     0
102
RTVSPost2010PropOp36
 70
     1
102
RTVSPost2010Prop37
 90
       50
102
RTVSPost2010PropOp37
 70
     1
102
RTVSPost2010Prop38
140
0.0
102
RTVSPost2010PropOp38
 70
     1
102
RTVSPost2010Prop39
140
1.0
102
RTVSPost2010PropOp39
 70
     1
102
RTVSPost2010Prop40
 90
        0
102
RTVSPost2010PropOp40
 70
     1
102
RTVSPost2010Prop41ColorIndex
 90
       18
102
RTVSPost2010Prop41ColorRGB
 90
        0
102
RTVSPost2010PropOp41
 70
     1
102
RTVSPost2010Prop42
 90
       50
102
RTVSPost2010PropOp42
 70
     1
102
RTVSPost2010Prop43
 90
        3
102
RTVSPost2010PropOp43
 70
     1
102
RTVSPost2010Prop44ColorIndex
 90
        5
102
RTVSPost2010Prop44ColorRGB
 90
      255
102
RTVSPost2010PropOp44
 70
     1
102
RTVSPost2010Prop45
280
     0
102
RTVSPost2010PropOp45
 70
     1
102
RTVSPost2010Prop46
 90
       50
102
RTVSPost2010PropOp46
 70
     1
102
RTVSPost2010Prop47
 90
       50
102
RTVSPost2010PropOp47
 70
     1
102
RTVSPost2010Prop48
 90
       50
102
RTVSPost2010PropOp48
 70
     1
102
RTVSPost2010Prop49
280
     0
102
RTVSPost2010PropOp49
 70
     1
102
RTVSPost2010Prop50
 90
       50
102
RTVSPost2010PropOp50
 70
     1
102
RTVSPost2010Prop51ColorIndex
 90
      256
102
RTVSPost2010Prop51ColorRGB
 90
-16777216
102
RTVSPost2010PropOp51
 70
     0
102
RTVSPost2010Prop52
140
1.0
102
RTVSPost2010PropOp52
 70
     0
102
RTVSPost2010Prop53
 90
        2
102
RTVSPost2010PropOp53
 70
     1
102
RTVSPost2010Prop54
  1
strokes_ogs.tif
102
RTVSPost2010PropOp54
 70
     1
102
RTVSPost2010Prop55
280
     0
102
RTVSPost2010PropOp55
 70
     1
102
RTVSPost2010Prop56
140
1.0
102
RTVSPost2010PropOp56
 70
     1
102
RTVSPost2010Prop57
140
1.0
102
RTVSPost2010PropOp57
 70
     1
102
RTVSPropertyOp0
 70
     1
102
RTVSPropertyOp1
 70
     1
102
RTVSPropertyOp2
 70
     1
102
RTVSPropertyOp3
 70
     1
102
RTVSPropertyOp4
 70
     1
102
RTVSPropertyOp5
 70
     1
102
RTVSPropertyOp6
 70
     1
102
RTVSPropertyOp7
 70
     1
102
RTVSPropertyOp8
 70
     1
102
RTVSPropertyOp9
 70
     1
102
RTVSPropertyOp10
 70
     1
102
RTVSPropertyOp11
 70
     1
102
RTVSPropertyOp12
 70
     1
102
RTVSPropertyOp13
 70
     1
102
RTVSPropertyOp14
 70
     1
102
RTVSPropertyOp15
 70
     1
102
RTVSPropertyOp16
 70
     1
102
RTVSPropertyOp17
 70
     1
102
RTVSPropertyOp18
 70
     1
102
RTVSPropertyOp19
 70
     1
102
RTVSPropertyOp20
 70
     1
102
RTVSPropertyOp21
 70
     1
102
RTVSPropertyOp22
 70
     1
102
RTVSPropertyOp23
 70
     1
102
RTVSPropertyOp24
 70
     1
102
RTVSPropertyOp25
 70
     1
102
RTVSPropertyOp26
 70
     1
102
RTVSPropertyOp27
 70
     1
102
RTVSPropertyOp28
 70
     1
102
RTVSPropertyOp29
 70
     1
102
RTVSPropertyOp30
 70
     1
102
RTVSPropertyOp31
 70
     1
102
RTVSPropertyOp32
 70
     1
102
RTVSPropertyOp33
 70
     1
102
RTVSPropertyOp34
 70
     1
102
RTVSPropertyOp35
 70
     1
102
RTVSPropertyOp36
 70
     1
102
RTVSPropertyOp37
 70
     1
102
RTVSPropertyOp38
 70
     1
102
RTVSPropertyOp39
 70
     1
102
RTVSPropertyOp40
 70
     1
102
RTVSPropertyOp41
 70
     1
102
RTVSPropertyOp42
 70
     1
102
RTVSPropertyOp43
 70
     1
102
RTVSPropertyOp44
 70
     1
102
RTVSPropertyOp45
 70
     1
102
RTVSPropertyOp46
 70
     1
102
RTVSPropertyOp47
 70
     1
102
RTVSPropertyOp48
 70
     1
102
RTVSPropertyOp49
 70
     1
102
RTVSPropertyOp50
 70
     1
102
RTVSPropertyOp51
 70
     0
102
RTVSPropertyOp52
 70
     0
102
RTVSPropertyOp53
 70
     1
102
RTVSPropertyOp54
 70
     1
102
RTVSPropertyOp55
 70
     1
102
RTVSPropertyOp56
 70
     1
102
RTVSPropertyOp57
 70
     1
102
RTVSPropertyOp58
 70
     1
102
RTVSPropertyOp59
 70
     1
102
RTVSPropertyOp60
 70
     1
102
RTVSPropertyOp61
 70
     1
102
RTVSPropertyOp62
 70
     1
  0
XRECORD
  5
185CE
102
{ACAD_REACTORS
330
185CD
102
}
330
185CD
100
AcDbXrecord
280
     1
102
RTVSPost2010Prop28
280
     0
102
RTVSPost2010PropOp28
 70
     1
102
RTVSPost2010Prop29
280
     1
102
RTVSPost2010PropOp29
 70
     1
102
RTVSPost2010Prop30
280
     1
102
RTVSPost2010PropOp30
 70
     1
102
RTVSPost2010Prop31
280
     0
102
RTVSPost2010PropOp31
 70
     1
102
RTVSPost2010Prop32
280
     0
102
RTVSPost2010PropOp32
 70
     1
102
RTVSPost2010Prop33
280
     0
102
RTVSPost2010PropOp33
 70
     1
102
RTVSPost2010Prop34
280
     0
102
RTVSPost2010PropOp34
 70
     1
102
RTVSPost2010Prop35
280
     0
102
RTVSPost2010PropOp35
 70
     1
102
RTVSPost2010Prop36
280
     0
102
RTVSPost2010PropOp36
 70
     1
102
RTVSPost2010Prop37
 90
       50
102
RTVSPost2010PropOp37
 70
     1
102
RTVSPost2010Prop38
140
0.0
102
RTVSPost2010PropOp38
 70
     1
102
RTVSPost2010Prop39
140
1.0
102
RTVSPost2010PropOp39
 70
     1
102
RTVSPost2010Prop40
 90
        0
102
RTVSPost2010PropOp40
 70
     1
102
RTVSPost2010Prop41ColorIndex
 90
       18
102
RTVSPost2010Prop41ColorRGB
 90
        0
102
RTVSPost2010PropOp41
 70
     1
102
RTVSPost2010Prop42
 90
       50
102
RTVSPost2010PropOp42
 70
     1
102
RTVSPost2010Prop43
 90
        3
102
RTVSPost2010PropOp43
 70
     1
102
RTVSPost2010Prop44ColorIndex
 90
        5
102
RTVSPost2010Prop44ColorRGB
 90
      255
102
RTVSPost2010PropOp44
 70
     1
102
RTVSPost2010Prop45
280
     0
102
RTVSPost2010PropOp45
 70
     1
102
RTVSPost2010Prop46
 90
       50
102
RTVSPost2010PropOp46
 70
     1
102
RTVSPost2010Prop47
 90
       50
102
RTVSPost2010PropOp47
 70
     1
102
RTVSPost2010Prop48
 90
       50
102
RTVSPost2010PropOp48
 70
     1
102
RTVSPost2010Prop49
280
     0
102
RTVSPost2010PropOp49
 70
     1
102
RTVSPost2010Prop50
 90
       50
102
RTVSPost2010PropOp50
 70
     1
102
RTVSPost2010Prop51ColorIndex
 90
      256
102
RTVSPost2010Prop51ColorRGB
 90
-16777216
102
RTVSPost2010PropOp51
 70
     0
102
RTVSPost2010Prop52
140
1.0
102
RTVSPost2010PropOp52
 70
     0
102
RTVSPost2010Prop53
 90
        2
102
RTVSPost2010PropOp53
 70
     1
102
RTVSPost2010Prop54
  1
strokes_ogs.tif
102
RTVSPost2010PropOp54
 70
     1
102
RTVSPost2010Prop55
280
     0
102
RTVSPost2010PropOp55
 70
     1
102
RTVSPost2010Prop56
140
1.0
102
RTVSPost2010PropOp56
 70
     1
102
RTVSPost2010Prop57
140
1.0
102
RTVSPost2010PropOp57
 70
     1
102
RTVSPropertyOp0
 70
     1
102
RTVSPropertyOp1
 70
     1
102
RTVSPropertyOp2
 70
     1
102
RTVSPropertyOp3
 70
     1
102
RTVSPropertyOp4
 70
     1
102
RTVSPropertyOp5
 70
     1
102
RTVSPropertyOp6
 70
     1
102
RTVSPropertyOp7
 70
     1
102
RTVSPropertyOp8
 70
     1
102
RTVSPropertyOp9
 70
     1
102
RTVSPropertyOp10
 70
     1
102
RTVSPropertyOp11
 70
     1
102
RTVSPropertyOp12
 70
     1
102
RTVSPropertyOp13
 70
     1
102
RTVSPropertyOp14
 70
     1
102
RTVSPropertyOp15
 70
     1
102
RTVSPropertyOp16
 70
     1
102
RTVSPropertyOp17
 70
     1
102
RTVSPropertyOp18
 70
     1
102
RTVSPropertyOp19
 70
     1
102
RTVSPropertyOp20
 70
     1
102
RTVSPropertyOp21
 70
     1
102
RTVSPropertyOp22
 70
     1
102
RTVSPropertyOp23
 70
     1
102
RTVSPropertyOp24
 70
     1
102
RTVSPropertyOp25
 70
     1
102
RTVSPropertyOp26
 70
     1
102
RTVSPropertyOp27
 70
     1
102
RTVSPropertyOp28
 70
     1
102
RTVSPropertyOp29
 70
     1
102
RTVSPropertyOp30
 70
     1
102
RTVSPropertyOp31
 70
     1
102
RTVSPropertyOp32
 70
     1
102
RTVSPropertyOp33
 70
     1
102
RTVSPropertyOp34
 70
     1
102
RTVSPropertyOp35
 70
     1
102
RTVSPropertyOp36
 70
     1
102
RTVSPropertyOp37
 70
     1
102
RTVSPropertyOp38
 70
     1
102
RTVSPropertyOp39
 70
     1
102
RTVSPropertyOp40
 70
     1
102
RTVSPropertyOp41
 70
     1
102
RTVSPropertyOp42
 70
     1
102
RTVSPropertyOp43
 70
     1
102
RTVSPropertyOp44
 70
     1
102
RTVSPropertyOp45
 70
     1
102
RTVSPropertyOp46
 70
     1
102
RTVSPropertyOp47
 70
     1
102
RTVSPropertyOp48
 70
     1
102
RTVSPropertyOp49
 70
     1
102
RTVSPropertyOp50
 70
     1
102
RTVSPropertyOp51
 70
     0
102
RTVSPropertyOp52
 70
     0
102
RTVSPropertyOp53
 70
     1
102
RTVSPropertyOp54
 70
     1
102
RTVSPropertyOp55
 70
     1
102
RTVSPropertyOp56
 70
     1
102
RTVSPropertyOp57
 70
     1
102
RTVSPropertyOp58
 70
     1
102
RTVSPropertyOp59
 70
     1
102
RTVSPropertyOp60
 70
     1
102
RTVSPropertyOp61
 70
     1
102
RTVSPropertyOp62
 70
     1
  0
XRECORD
  5
185D0
102
{ACAD_REACTORS
330
185CF
102
}
330
185CF
100
AcDbXrecord
280
     1
102
RTVSPost2010Prop28
280
     0
102
RTVSPost2010PropOp28
 70
     1
102
RTVSPost2010Prop29
280
     1
102
RTVSPost2010PropOp29
 70
     1
102
RTVSPost2010Prop30
280
     1
102
RTVSPost2010PropOp30
 70
     1
102
RTVSPost2010Prop31
280
     0
102
RTVSPost2010PropOp31
 70
     1
102
RTVSPost2010Prop32
280
     0
102
RTVSPost2010PropOp32
 70
     1
102
RTVSPost2010Prop33
280
     0
102
RTVSPost2010PropOp33
 70
     1
102
RTVSPost2010Prop34
280
     0
102
RTVSPost2010PropOp34
 70
     1
102
RTVSPost2010Prop35
280
     0
102
RTVSPost2010PropOp35
 70
     1
102
RTVSPost2010Prop36
280
     0
102
RTVSPost2010PropOp36
 70
     1
102
RTVSPost2010Prop37
 90
       50
102
RTVSPost2010PropOp37
 70
     1
102
RTVSPost2010Prop38
140
0.0
102
RTVSPost2010PropOp38
 70
     1
102
RTVSPost2010Prop39
140
1.0
102
RTVSPost2010PropOp39
 70
     1
102
RTVSPost2010Prop40
 90
        0
102
RTVSPost2010PropOp40
 70
     1
102
RTVSPost2010Prop41ColorIndex
 90
       18
102
RTVSPost2010Prop41ColorRGB
 90
        0
102
RTVSPost2010PropOp41
 70
     1
102
RTVSPost2010Prop42
 90
       50
102
RTVSPost2010PropOp42
 70
     1
102
RTVSPost2010Prop43
 90
        3
102
RTVSPost2010PropOp43
 70
     1
102
RTVSPost2010Prop44ColorIndex
 90
        5
102
RTVSPost2010Prop44ColorRGB
 90
      255
102
RTVSPost2010PropOp44
 70
     1
102
RTVSPost2010Prop45
280
     0
102
RTVSPost2010PropOp45
 70
     1
102
RTVSPost2010Prop46
 90
       50
102
RTVSPost2010PropOp46
 70
     1
102
RTVSPost2010Prop47
 90
       50
102
RTVSPost2010PropOp47
 70
     1
102
RTVSPost2010Prop48
 90
       50
102
RTVSPost2010PropOp48
 70
     1
102
RTVSPost2010Prop49
280
     0
102
RTVSPost2010PropOp49
 70
     1
102
RTVSPost2010Prop50
 90
       50
102
RTVSPost2010PropOp50
 70
     1
102
RTVSPost2010Prop51ColorIndex
 90
      256
102
RTVSPost2010Prop51ColorRGB
 90
-16777216
102
RTVSPost2010PropOp51
 70
     0
102
RTVSPost2010Prop52
140
1.0
102
RTVSPost2010PropOp52
 70
     0
102
RTVSPost2010Prop53
 90
        2
102
RTVSPost2010PropOp53
 70
     1
102
RTVSPost2010Prop54
  1
strokes_ogs.tif
102
RTVSPost2010PropOp54
 70
     1
102
RTVSPost2010Prop55
280
     0
102
RTVSPost2010PropOp55
 70
     1
102
RTVSPost2010Prop56
140
1.0
102
RTVSPost2010PropOp56
 70
     1
102
RTVSPost2010Prop57
140
1.0
102
RTVSPost2010PropOp57
 70
     1
102
RTVSPropertyOp0
 70
     1
102
RTVSPropertyOp1
 70
     1
102
RTVSPropertyOp2
 70
     1
102
RTVSPropertyOp3
 70
     1
102
RTVSPropertyOp4
 70
     1
102
RTVSPropertyOp5
 70
     1
102
RTVSPropertyOp6
 70
     1
102
RTVSPropertyOp7
 70
     1
102
RTVSPropertyOp8
 70
     1
102
RTVSPropertyOp9
 70
     1
102
RTVSPropertyOp10
 70
     1
102
RTVSPropertyOp11
 70
     1
102
RTVSPropertyOp12
 70
     1
102
RTVSPropertyOp13
 70
     1
102
RTVSPropertyOp14
 70
     1
102
RTVSPropertyOp15
 70
     1
102
RTVSPropertyOp16
 70
     1
102
RTVSPropertyOp17
 70
     1
102
RTVSPropertyOp18
 70
     1
102
RTVSPropertyOp19
 70
     1
102
RTVSPropertyOp20
 70
     1
102
RTVSPropertyOp21
 70
     1
102
RTVSPropertyOp22
 70
     1
102
RTVSPropertyOp23
 70
     1
102
RTVSPropertyOp24
 70
     1
102
RTVSPropertyOp25
 70
     1
102
RTVSPropertyOp26
 70
     1
102
RTVSPropertyOp27
 70
     1
102
RTVSPropertyOp28
 70
     1
102
RTVSPropertyOp29
 70
     1
102
RTVSPropertyOp30
 70
     1
102
RTVSPropertyOp31
 70
     1
102
RTVSPropertyOp32
 70
     1
102
RTVSPropertyOp33
 70
     1
102
RTVSPropertyOp34
 70
     1
102
RTVSPropertyOp35
 70
     1
102
RTVSPropertyOp36
 70
     1
102
RTVSPropertyOp37
 70
     1
102
RTVSPropertyOp38
 70
     1
102
RTVSPropertyOp39
 70
     1
102
RTVSPropertyOp40
 70
     1
102
RTVSPropertyOp41
 70
     1
102
RTVSPropertyOp42
 70
     1
102
RTVSPropertyOp43
 70
     1
102
RTVSPropertyOp44
 70
     1
102
RTVSPropertyOp45
 70
     1
102
RTVSPropertyOp46
 70
     1
102
RTVSPropertyOp47
 70
     1
102
RTVSPropertyOp48
 70
     1
102
RTVSPropertyOp49
 70
     1
102
RTVSPropertyOp50
 70
     1
102
RTVSPropertyOp51
 70
     0
102
RTVSPropertyOp52
 70
     0
102
RTVSPropertyOp53
 70
     1
102
RTVSPropertyOp54
 70
     1
102
RTVSPropertyOp55
 70
     1
102
RTVSPropertyOp56
 70
     1
102
RTVSPropertyOp57
 70
     1
102
RTVSPropertyOp58
 70
     1
102
RTVSPropertyOp59
 70
     1
102
RTVSPropertyOp60
 70
     1
102
RTVSPropertyOp61
 70
     1
102
RTVSPropertyOp62
 70
     1
  0
XRECORD
  5
185D2
102
{ACAD_REACTORS
330
185D1
102
}
330
185D1
100
AcDbXrecord
280
     1
102
RTVSPost2010Prop28
280
     0
102
RTVSPost2010PropOp28
 70
     1
102
RTVSPost2010Prop29
280
     1
102
RTVSPost2010PropOp29
 70
     1
102
RTVSPost2010Prop30
280
     1
102
RTVSPost2010PropOp30
 70
     1
102
RTVSPost2010Prop31
280
     0
102
RTVSPost2010PropOp31
 70
     1
102
RTVSPost2010Prop32
280
     0
102
RTVSPost2010PropOp32
 70
     1
102
RTVSPost2010Prop33
280
     0
102
RTVSPost2010PropOp33
 70
     1
102
RTVSPost2010Prop34
280
     0
102
RTVSPost2010PropOp34
 70
     1
102
RTVSPost2010Prop35
280
     0
102
RTVSPost2010PropOp35
 70
     1
102
RTVSPost2010Prop36
280
     0
102
RTVSPost2010PropOp36
 70
     1
102
RTVSPost2010Prop37
 90
       50
102
RTVSPost2010PropOp37
 70
     1
102
RTVSPost2010Prop38
140
0.0
102
RTVSPost2010PropOp38
 70
     1
102
RTVSPost2010Prop39
140
1.0
102
RTVSPost2010PropOp39
 70
     1
102
RTVSPost2010Prop40
 90
        0
102
RTVSPost2010PropOp40
 70
     1
102
RTVSPost2010Prop41ColorIndex
 90
       18
102
RTVSPost2010Prop41ColorRGB
 90
        0
102
RTVSPost2010PropOp41
 70
     1
102
RTVSPost2010Prop42
 90
       50
102
RTVSPost2010PropOp42
 70
     1
102
RTVSPost2010Prop43
 90
        3
102
RTVSPost2010PropOp43
 70
     1
102
RTVSPost2010Prop44ColorIndex
 90
        5
102
RTVSPost2010Prop44ColorRGB
 90
      255
102
RTVSPost2010PropOp44
 70
     1
102
RTVSPost2010Prop45
280
     0
102
RTVSPost2010PropOp45
 70
     1
102
RTVSPost2010Prop46
 90
       50
102
RTVSPost2010PropOp46
 70
     1
102
RTVSPost2010Prop47
 90
       50
102
RTVSPost2010PropOp47
 70
     1
102
RTVSPost2010Prop48
 90
       50
102
RTVSPost2010PropOp48
 70
     1
102
RTVSPost2010Prop49
280
     0
102
RTVSPost2010PropOp49
 70
     1
102
RTVSPost2010Prop50
 90
       50
102
RTVSPost2010PropOp50
 70
     1
102
RTVSPost2010Prop51ColorIndex
 90
      256
102
RTVSPost2010Prop51ColorRGB
 90
-16777216
102
RTVSPost2010PropOp51
 70
     0
102
RTVSPost2010Prop52
140
1.0
102
RTVSPost2010PropOp52
 70
     0
102
RTVSPost2010Prop53
 90
        2
102
RTVSPost2010PropOp53
 70
     1
102
RTVSPost2010Prop54
  1
strokes_ogs.tif
102
RTVSPost2010PropOp54
 70
     1
102
RTVSPost2010Prop55
280
     0
102
RTVSPost2010PropOp55
 70
     1
102
RTVSPost2010Prop56
140
1.0
102
RTVSPost2010PropOp56
 70
     1
102
RTVSPost2010Prop57
140
1.0
102
RTVSPost2010PropOp57
 70
     1
102
RTVSPropertyOp0
 70
     1
102
RTVSPropertyOp1
 70
     1
102
RTVSPropertyOp2
 70
     1
102
RTVSPropertyOp3
 70
     1
102
RTVSPropertyOp4
 70
     1
102
RTVSPropertyOp5
 70
     1
102
RTVSPropertyOp6
 70
     1
102
RTVSPropertyOp7
 70
     1
102
RTVSPropertyOp8
 70
     1
102
RTVSPropertyOp9
 70
     1
102
RTVSPropertyOp10
 70
     1
102
RTVSPropertyOp11
 70
     1
102
RTVSPropertyOp12
 70
     1
102
RTVSPropertyOp13
 70
     1
102
RTVSPropertyOp14
 70
     1
102
RTVSPropertyOp15
 70
     1
102
RTVSPropertyOp16
 70
     1
102
RTVSPropertyOp17
 70
     1
102
RTVSPropertyOp18
 70
     1
102
RTVSPropertyOp19
 70
     1
102
RTVSPropertyOp20
 70
     1
102
RTVSPropertyOp21
 70
     1
102
RTVSPropertyOp22
 70
     1
102
RTVSPropertyOp23
 70
     1
102
RTVSPropertyOp24
 70
     1
102
RTVSPropertyOp25
 70
     1
102
RTVSPropertyOp26
 70
     1
102
RTVSPropertyOp27
 70
     1
102
RTVSPropertyOp28
 70
     1
102
RTVSPropertyOp29
 70
     1
102
RTVSPropertyOp30
 70
     1
102
RTVSPropertyOp31
 70
     1
102
RTVSPropertyOp32
 70
     1
102
RTVSPropertyOp33
 70
     1
102
RTVSPropertyOp34
 70
     1
102
RTVSPropertyOp35
 70
     1
102
RTVSPropertyOp36
 70
     1
102
RTVSPropertyOp37
 70
     1
102
RTVSPropertyOp38
 70
     1
102
RTVSPropertyOp39
 70
     1
102
RTVSPropertyOp40
 70
     1
102
RTVSPropertyOp41
 70
     1
102
RTVSPropertyOp42
 70
     1
102
RTVSPropertyOp43
 70
     1
102
RTVSPropertyOp44
 70
     1
102
RTVSPropertyOp45
 70
     1
102
RTVSPropertyOp46
 70
     1
102
RTVSPropertyOp47
 70
     1
102
RTVSPropertyOp48
 70
     1
102
RTVSPropertyOp49
 70
     1
102
RTVSPropertyOp50
 70
     1
102
RTVSPropertyOp51
 70
     0
102
RTVSPropertyOp52
 70
     0
102
RTVSPropertyOp53
 70
     1
102
RTVSPropertyOp54
 70
     1
102
RTVSPropertyOp55
 70
     1
102
RTVSPropertyOp56
 70
     1
102
RTVSPropertyOp57
 70
     1
102
RTVSPropertyOp58
 70
     1
102
RTVSPropertyOp59
 70
     1
102
RTVSPropertyOp60
 70
     1
102
RTVSPropertyOp61
 70
     1
102
RTVSPropertyOp62
 70
     1
  0
XRECORD
  5
185EE
102
{ACAD_REACTORS
330
185ED
102
}
330
185ED
100
AcDbXrecord
280
     1
102
RTVSPost2010Prop28
280
     0
102
RTVSPost2010PropOp28
 70
     1
102
RTVSPost2010Prop29
280
     1
102
RTVSPost2010PropOp29
 70
     1
102
RTVSPost2010Prop30
280
     1
102
RTVSPost2010PropOp30
 70
     1
102
RTVSPost2010Prop31
280
     0
102
RTVSPost2010PropOp31
 70
     1
102
RTVSPost2010Prop32
280
     0
102
RTVSPost2010PropOp32
 70
     1
102
RTVSPost2010Prop33
280
     0
102
RTVSPost2010PropOp33
 70
     1
102
RTVSPost2010Prop34
280
     0
102
RTVSPost2010PropOp34
 70
     1
102
RTVSPost2010Prop35
280
     0
102
RTVSPost2010PropOp35
 70
     1
102
RTVSPost2010Prop36
280
     0
102
RTVSPost2010PropOp36
 70
     1
102
RTVSPost2010Prop37
 90
       50
102
RTVSPost2010PropOp37
 70
     1
102
RTVSPost2010Prop38
140
0.0
102
RTVSPost2010PropOp38
 70
     1
102
RTVSPost2010Prop39
140
1.0
102
RTVSPost2010PropOp39
 70
     1
102
RTVSPost2010Prop40
 90
        0
102
RTVSPost2010PropOp40
 70
     1
102
RTVSPost2010Prop41ColorIndex
 90
       18
102
RTVSPost2010Prop41ColorRGB
 90
        0
102
RTVSPost2010PropOp41
 70
     1
102
RTVSPost2010Prop42
 90
       50
102
RTVSPost2010PropOp42
 70
     1
102
RTVSPost2010Prop43
 90
        3
102
RTVSPost2010PropOp43
 70
     1
102
RTVSPost2010Prop44ColorIndex
 90
        5
102
RTVSPost2010Prop44ColorRGB
 90
      255
102
RTVSPost2010PropOp44
 70
     1
102
RTVSPost2010Prop45
280
     0
102
RTVSPost2010PropOp45
 70
     1
102
RTVSPost2010Prop46
 90
       50
102
RTVSPost2010PropOp46
 70
     1
102
RTVSPost2010Prop47
 90
       50
102
RTVSPost2010PropOp47
 70
     1
102
RTVSPost2010Prop48
 90
       50
102
RTVSPost2010PropOp48
 70
     1
102
RTVSPost2010Prop49
280
     0
102
RTVSPost2010PropOp49
 70
     1
102
RTVSPost2010Prop50
 90
       50
102
RTVSPost2010PropOp50
 70
     1
102
RTVSPost2010Prop51ColorIndex
 90
      256
102
RTVSPost2010Prop51ColorRGB
 90
-16777216
102
RTVSPost2010PropOp51
 70
     0
102
RTVSPost2010Prop52
140
1.0
102
RTVSPost2010PropOp52
 70
     0
102
RTVSPost2010Prop53
 90
        2
102
RTVSPost2010PropOp53
 70
     1
102
RTVSPost2010Prop54
  1
strokes_ogs.tif
102
RTVSPost2010PropOp54
 70
     1
102
RTVSPost2010Prop55
280
     0
102
RTVSPost2010PropOp55
 70
     1
102
RTVSPost2010Prop56
140
1.0
102
RTVSPost2010PropOp56
 70
     1
102
RTVSPost2010Prop57
140
1.0
102
RTVSPost2010PropOp57
 70
     1
102
RTVSPropertyOp0
 70
     1
102
RTVSPropertyOp1
 70
     1
102
RTVSPropertyOp2
 70
     1
102
RTVSPropertyOp3
 70
     1
102
RTVSPropertyOp4
 70
     1
102
RTVSPropertyOp5
 70
     1
102
RTVSPropertyOp6
 70
     1
102
RTVSPropertyOp7
 70
     1
102
RTVSPropertyOp8
 70
     1
102
RTVSPropertyOp9
 70
     1
102
RTVSPropertyOp10
 70
     1
102
RTVSPropertyOp11
 70
     1
102
RTVSPropertyOp12
 70
     1
102
RTVSPropertyOp13
 70
     1
102
RTVSPropertyOp14
 70
     1
102
RTVSPropertyOp15
 70
     1
102
RTVSPropertyOp16
 70
     1
102
RTVSPropertyOp17
 70
     1
102
RTVSPropertyOp18
 70
     1
102
RTVSPropertyOp19
 70
     1
102
RTVSPropertyOp20
 70
     1
102
RTVSPropertyOp21
 70
     1
102
RTVSPropertyOp22
 70
     1
102
RTVSPropertyOp23
 70
     1
102
RTVSPropertyOp24
 70
     1
102
RTVSPropertyOp25
 70
     1
102
RTVSPropertyOp26
 70
     1
102
RTVSPropertyOp27
 70
     1
102
RTVSPropertyOp28
 70
     1
102
RTVSPropertyOp29
 70
     1
102
RTVSPropertyOp30
 70
     1
102
RTVSPropertyOp31
 70
     1
102
RTVSPropertyOp32
 70
     1
102
RTVSPropertyOp33
 70
     1
102
RTVSPropertyOp34
 70
     1
102
RTVSPropertyOp35
 70
     1
102
RTVSPropertyOp36
 70
     1
102
RTVSPropertyOp37
 70
     1
102
RTVSPropertyOp38
 70
     1
102
RTVSPropertyOp39
 70
     1
102
RTVSPropertyOp40
 70
     1
102
RTVSPropertyOp41
 70
     1
102
RTVSPropertyOp42
 70
     1
102
RTVSPropertyOp43
 70
     1
102
RTVSPropertyOp44
 70
     1
102
RTVSPropertyOp45
 70
     1
102
RTVSPropertyOp46
 70
     1
102
RTVSPropertyOp47
 70
     1
102
RTVSPropertyOp48
 70
     1
102
RTVSPropertyOp49
 70
     1
102
RTVSPropertyOp50
 70
     1
102
RTVSPropertyOp51
 70
     0
102
RTVSPropertyOp52
 70
     0
102
RTVSPropertyOp53
 70
     1
102
RTVSPropertyOp54
 70
     1
102
RTVSPropertyOp55
 70
     1
102
RTVSPropertyOp56
 70
     1
102
RTVSPropertyOp57
 70
     1
102
RTVSPropertyOp58
 70
     1
102
RTVSPropertyOp59
 70
     1
102
RTVSPropertyOp60
 70
     1
102
RTVSPropertyOp61
 70
     1
102
RTVSPropertyOp62
 70
     1
  0
XRECORD
  5
185FA
102
{ACAD_REACTORS
330
185F9
102
}
330
185F9
100
AcDbXrecord
280
     1
102
RTVSPost2010Prop28
280
     0
102
RTVSPost2010PropOp28
 70
     0
102
RTVSPost2010Prop29
280
     1
102
RTVSPost2010PropOp29
 70
     0
102
RTVSPost2010Prop30
280
     1
102
RTVSPost2010PropOp30
 70
     0
102
RTVSPost2010Prop31
280
     0
102
RTVSPost2010PropOp31
 70
     0
102
RTVSPost2010Prop32
280
     0
102
RTVSPost2010PropOp32
 70
     0
102
RTVSPost2010Prop33
280
     0
102
RTVSPost2010PropOp33
 70
     0
102
RTVSPost2010Prop34
280
     0
102
RTVSPost2010PropOp34
 70
     0
102
RTVSPost2010Prop35
280
     0
102
RTVSPost2010PropOp35
 70
     0
102
RTVSPost2010Prop36
280
     0
102
RTVSPost2010PropOp36
 70
     0
102
RTVSPost2010Prop37
 90
       50
102
RTVSPost2010PropOp37
 70
     0
102
RTVSPost2010Prop38
140
0.0
102
RTVSPost2010PropOp38
 70
     0
102
RTVSPost2010Prop39
140
1.0
102
RTVSPost2010PropOp39
 70
     0
102
RTVSPost2010Prop40
 90
        0
102
RTVSPost2010PropOp40
 70
     0
102
RTVSPost2010Prop41ColorIndex
 90
       18
102
RTVSPost2010Prop41ColorRGB
 90
        0
102
RTVSPost2010PropOp41
 70
     0
102
RTVSPost2010Prop42
 90
       50
102
RTVSPost2010PropOp42
 70
     0
102
RTVSPost2010Prop43
 90
        3
102
RTVSPost2010PropOp43
 70
     0
102
RTVSPost2010Prop44ColorIndex
 90
        5
102
RTVSPost2010Prop44ColorRGB
 90
      255
102
RTVSPost2010PropOp44
 70
     0
102
RTVSPost2010Prop45
280
     0
102
RTVSPost2010PropOp45
 70
     0
102
RTVSPost2010Prop46
 90
       50
102
RTVSPost2010PropOp46
 70
     0
102
RTVSPost2010Prop47
 90
       50
102
RTVSPost2010PropOp47
 70
     0
102
RTVSPost2010Prop48
 90
       50
102
RTVSPost2010PropOp48
 70
     0
102
RTVSPost2010Prop49
280
     0
102
RTVSPost2010PropOp49
 70
     0
102
RTVSPost2010Prop50
 90
       50
102
RTVSPost2010PropOp50
 70
     0
102
RTVSPost2010Prop51ColorIndex
 90
      256
102
RTVSPost2010Prop51ColorRGB
 90
-16777216
102
RTVSPost2010PropOp51
 70
     0
102
RTVSPost2010Prop52
140
1.0
102
RTVSPost2010PropOp52
 70
     0
102
RTVSPost2010Prop53
 90
        2
102
RTVSPost2010PropOp53
 70
     0
102
RTVSPost2010Prop54
  1
strokes_ogs.tif
102
RTVSPost2010PropOp54
 70
     0
102
RTVSPost2010Prop55
280
     0
102
RTVSPost2010PropOp55
 70
     0
102
RTVSPost2010Prop56
140
1.0
102
RTVSPost2010PropOp56
 70
     0
102
RTVSPost2010Prop57
140
1.0
102
RTVSPost2010PropOp57
 70
     0
102
RTVSPropertyOp0
 70
     0
102
RTVSPropertyOp1
 70
     0
102
RTVSPropertyOp2
 70
     0
102
RTVSPropertyOp3
 70
     0
102
RTVSPropertyOp4
 70
     0
102
RTVSPropertyOp5
 70
     0
102
RTVSPropertyOp6
 70
     0
102
RTVSPropertyOp7
 70
     0
102
RTVSPropertyOp8
 70
     0
102
RTVSPropertyOp9
 70
     0
102
RTVSPropertyOp10
 70
     0
102
RTVSPropertyOp11
 70
     0
102
RTVSPropertyOp12
 70
     0
102
RTVSPropertyOp13
 70
     0
102
RTVSPropertyOp14
 70
     2
102
RTVSPropertyOp15
 70
     0
102
RTVSPropertyOp16
 70
     0
102
RTVSPropertyOp17
 70
     0
102
RTVSPropertyOp18
 70
     0
102
RTVSPropertyOp19
 70
     0
102
RTVSPropertyOp20
 70
     0
102
RTVSPropertyOp21
 70
     0
102
RTVSPropertyOp22
 70
     0
102
RTVSPropertyOp23
 70
     0
102
RTVSPropertyOp24
 70
     0
102
RTVSPropertyOp25
 70
     0
102
RTVSPropertyOp26
 70
     0
102
RTVSPropertyOp27
 70
     0
102
RTVSPropertyOp28
 70
     0
102
RTVSPropertyOp29
 70
     0
102
RTVSPropertyOp30
 70
     0
102
RTVSPropertyOp31
 70
     0
102
RTVSPropertyOp32
 70
     0
102
RTVSPropertyOp33
 70
     0
102
RTVSPropertyOp34
 70
     0
102
RTVSPropertyOp35
 70
     0
102
RTVSPropertyOp36
 70
     0
102
RTVSPropertyOp37
 70
     0
102
RTVSPropertyOp38
 70
     0
102
RTVSPropertyOp39
 70
     0
102
RTVSPropertyOp40
 70
     0
102
RTVSPropertyOp41
 70
     0
102
RTVSPropertyOp42
 70
     0
102
RTVSPropertyOp43
 70
     0
102
RTVSPropertyOp44
 70
     0
102
RTVSPropertyOp45
 70
     0
102
RTVSPropertyOp46
 70
     0
102
RTVSPropertyOp47
 70
     0
102
RTVSPropertyOp48
 70
     0
102
RTVSPropertyOp49
 70
     0
102
RTVSPropertyOp50
 70
     0
102
RTVSPropertyOp51
 70
     0
102
RTVSPropertyOp52
 70
     0
102
RTVSPropertyOp53
 70
     0
102
RTVSPropertyOp54
 70
     0
102
RTVSPropertyOp55
 70
     0
102
RTVSPropertyOp56
 70
     0
102
RTVSPropertyOp57
 70
     0
102
RTVSPropertyOp58
 70
     1
102
RTVSPropertyOp59
 70
     1
102
RTVSPropertyOp60
 70
     1
102
RTVSPropertyOp61
 70
     1
102
RTVSPropertyOp62
 70
     1
  0
XRECORD
  5
185E6
102
{ACAD_REACTORS
330
185E5
102
}
330
185E5
100
AcDbXrecord
280
     1
102
RTVSPost2010Prop28
280
     0
102
RTVSPost2010PropOp28
 70
     1
102
RTVSPost2010Prop29
280
     1
102
RTVSPost2010PropOp29
 70
     1
102
RTVSPost2010Prop30
280
     1
102
RTVSPost2010PropOp30
 70
     1
102
RTVSPost2010Prop31
280
     0
102
RTVSPost2010PropOp31
 70
     1
102
RTVSPost2010Prop32
280
     0
102
RTVSPost2010PropOp32
 70
     1
102
RTVSPost2010Prop33
280
     0
102
RTVSPost2010PropOp33
 70
     1
102
RTVSPost2010Prop34
280
     0
102
RTVSPost2010PropOp34
 70
     1
102
RTVSPost2010Prop35
280
     0
102
RTVSPost2010PropOp35
 70
     1
102
RTVSPost2010Prop36
280
     0
102
RTVSPost2010PropOp36
 70
     1
102
RTVSPost2010Prop37
 90
       50
102
RTVSPost2010PropOp37
 70
     1
102
RTVSPost2010Prop38
140
0.0
102
RTVSPost2010PropOp38
 70
     1
102
RTVSPost2010Prop39
140
1.0
102
RTVSPost2010PropOp39
 70
     1
102
RTVSPost2010Prop40
 90
        0
102
RTVSPost2010PropOp40
 70
     1
102
RTVSPost2010Prop41ColorIndex
 90
       18
102
RTVSPost2010Prop41ColorRGB
 90
        0
102
RTVSPost2010PropOp41
 70
     1
102
RTVSPost2010Prop42
 90
       50
102
RTVSPost2010PropOp42
 70
     1
102
RTVSPost2010Prop43
 90
        3
102
RTVSPost2010PropOp43
 70
     1
102
RTVSPost2010Prop44ColorIndex
 90
        5
102
RTVSPost2010Prop44ColorRGB
 90
      255
102
RTVSPost2010PropOp44
 70
     1
102
RTVSPost2010Prop45
280
     0
102
RTVSPost2010PropOp45
 70
     1
102
RTVSPost2010Prop46
 90
       50
102
RTVSPost2010PropOp46
 70
     1
102
RTVSPost2010Prop47
 90
       50
102
RTVSPost2010PropOp47
 70
     1
102
RTVSPost2010Prop48
 90
       50
102
RTVSPost2010PropOp48
 70
     1
102
RTVSPost2010Prop49
280
     0
102
RTVSPost2010PropOp49
 70
     1
102
RTVSPost2010Prop50
 90
       50
102
RTVSPost2010PropOp50
 70
     1
102
RTVSPost2010Prop51ColorIndex
 90
      256
102
RTVSPost2010Prop51ColorRGB
 90
-16777216
102
RTVSPost2010PropOp51
 70
     0
102
RTVSPost2010Prop52
140
1.0
102
RTVSPost2010PropOp52
 70
     0
102
RTVSPost2010Prop53
 90
        2
102
RTVSPost2010PropOp53
 70
     1
102
RTVSPost2010Prop54
  1
strokes_ogs.tif
102
RTVSPost2010PropOp54
 70
     1
102
RTVSPost2010Prop55
280
     0
102
RTVSPost2010PropOp55
 70
     1
102
RTVSPost2010Prop56
140
1.0
102
RTVSPost2010PropOp56
 70
     1
102
RTVSPost2010Prop57
140
1.0
102
RTVSPost2010PropOp57
 70
     1
102
RTVSPropertyOp0
 70
     1
102
RTVSPropertyOp1
 70
     1
102
RTVSPropertyOp2
 70
     1
102
RTVSPropertyOp3
 70
     1
102
RTVSPropertyOp4
 70
     1
102
RTVSPropertyOp5
 70
     1
102
RTVSPropertyOp6
 70
     1
102
RTVSPropertyOp7
 70
     1
102
RTVSPropertyOp8
 70
     1
102
RTVSPropertyOp9
 70
     1
102
RTVSPropertyOp10
 70
     1
102
RTVSPropertyOp11
 70
     1
102
RTVSPropertyOp12
 70
     1
102
RTVSPropertyOp13
 70
     1
102
RTVSPropertyOp14
 70
     1
102
RTVSPropertyOp15
 70
     1
102
RTVSPropertyOp16
 70
     1
102
RTVSPropertyOp17
 70
     1
102
RTVSPropertyOp18
 70
     1
102
RTVSPropertyOp19
 70
     1
102
RTVSPropertyOp20
 70
     1
102
RTVSPropertyOp21
 70
     1
102
RTVSPropertyOp22
 70
     1
102
RTVSPropertyOp23
 70
     1
102
RTVSPropertyOp24
 70
     1
102
RTVSPropertyOp25
 70
     1
102
RTVSPropertyOp26
 70
     1
102
RTVSPropertyOp27
 70
     1
102
RTVSPropertyOp28
 70
     1
102
RTVSPropertyOp29
 70
     1
102
RTVSPropertyOp30
 70
     1
102
RTVSPropertyOp31
 70
     1
102
RTVSPropertyOp32
 70
     1
102
RTVSPropertyOp33
 70
     1
102
RTVSPropertyOp34
 70
     1
102
RTVSPropertyOp35
 70
     1
102
RTVSPropertyOp36
 70
     1
102
RTVSPropertyOp37
 70
     1
102
RTVSPropertyOp38
 70
     1
102
RTVSPropertyOp39
 70
     1
102
RTVSPropertyOp40
 70
     1
102
RTVSPropertyOp41
 70
     1
102
RTVSPropertyOp42
 70
     1
102
RTVSPropertyOp43
 70
     1
102
RTVSPropertyOp44
 70
     1
102
RTVSPropertyOp45
 70
     1
102
RTVSPropertyOp46
 70
     1
102
RTVSPropertyOp47
 70
     1
102
RTVSPropertyOp48
 70
     1
102
RTVSPropertyOp49
 70
     1
102
RTVSPropertyOp50
 70
     1
102
RTVSPropertyOp51
 70
     0
102
RTVSPropertyOp52
 70
     0
102
RTVSPropertyOp53
 70
     1
102
RTVSPropertyOp54
 70
     1
102
RTVSPropertyOp55
 70
     1
102
RTVSPropertyOp56
 70
     1
102
RTVSPropertyOp57
 70
     1
102
RTVSPropertyOp58
 70
     1
102
RTVSPropertyOp59
 70
     1
102
RTVSPropertyOp60
 70
     1
102
RTVSPropertyOp61
 70
     1
102
RTVSPropertyOp62
 70
     1
  0
XRECORD
  5
185FC
102
{ACAD_REACTORS
330
185FB
102
}
330
185FB
100
AcDbXrecord
280
     1
102
RTVSPost2010Prop28
280
     0
102
RTVSPost2010PropOp28
 70
     0
102
RTVSPost2010Prop29
280
     1
102
RTVSPost2010PropOp29
 70
     0
102
RTVSPost2010Prop30
280
     1
102
RTVSPost2010PropOp30
 70
     0
102
RTVSPost2010Prop31
280
     0
102
RTVSPost2010PropOp31
 70
     0
102
RTVSPost2010Prop32
280
     0
102
RTVSPost2010PropOp32
 70
     0
102
RTVSPost2010Prop33
280
     0
102
RTVSPost2010PropOp33
 70
     0
102
RTVSPost2010Prop34
280
     0
102
RTVSPost2010PropOp34
 70
     0
102
RTVSPost2010Prop35
280
     0
102
RTVSPost2010PropOp35
 70
     0
102
RTVSPost2010Prop36
280
     0
102
RTVSPost2010PropOp36
 70
     0
102
RTVSPost2010Prop37
 90
       50
102
RTVSPost2010PropOp37
 70
     0
102
RTVSPost2010Prop38
140
0.0
102
RTVSPost2010PropOp38
 70
     0
102
RTVSPost2010Prop39
140
1.0
102
RTVSPost2010PropOp39
 70
     0
102
RTVSPost2010Prop40
 90
        0
102
RTVSPost2010PropOp40
 70
     0
102
RTVSPost2010Prop41ColorIndex
 90
       18
102
RTVSPost2010Prop41ColorRGB
 90
        0
102
RTVSPost2010PropOp41
 70
     0
102
RTVSPost2010Prop42
 90
       50
102
RTVSPost2010PropOp42
 70
     0
102
RTVSPost2010Prop43
 90
        3
102
RTVSPost2010PropOp43
 70
     0
102
RTVSPost2010Prop44ColorIndex
 90
        5
102
RTVSPost2010Prop44ColorRGB
 90
      255
102
RTVSPost2010PropOp44
 70
     0
102
RTVSPost2010Prop45
280
     0
102
RTVSPost2010PropOp45
 70
     0
102
RTVSPost2010Prop46
 90
       50
102
RTVSPost2010PropOp46
 70
     0
102
RTVSPost2010Prop47
 90
       50
102
RTVSPost2010PropOp47
 70
     0
102
RTVSPost2010Prop48
 90
       50
102
RTVSPost2010PropOp48
 70
     0
102
RTVSPost2010Prop49
280
     0
102
RTVSPost2010PropOp49
 70
     0
102
RTVSPost2010Prop50
 90
       50
102
RTVSPost2010PropOp50
 70
     0
102
RTVSPost2010Prop51ColorIndex
 90
      256
102
RTVSPost2010Prop51ColorRGB
 90
-16777216
102
RTVSPost2010PropOp51
 70
     0
102
RTVSPost2010Prop52
140
1.0
102
RTVSPost2010PropOp52
 70
     0
102
RTVSPost2010Prop53
 90
        2
102
RTVSPost2010PropOp53
 70
     0
102
RTVSPost2010Prop54
  1
strokes_ogs.tif
102
RTVSPost2010PropOp54
 70
     0
102
RTVSPost2010Prop55
280
     0
102
RTVSPost2010PropOp55
 70
     0
102
RTVSPost2010Prop56
140
1.0
102
RTVSPost2010PropOp56
 70
     0
102
RTVSPost2010Prop57
140
1.0
102
RTVSPost2010PropOp57
 70
     0
102
RTVSPropertyOp0
 70
     0
102
RTVSPropertyOp1
 70
     0
102
RTVSPropertyOp2
 70
     0
102
RTVSPropertyOp3
 70
     0
102
RTVSPropertyOp4
 70
     0
102
RTVSPropertyOp5
 70
     0
102
RTVSPropertyOp6
 70
     0
102
RTVSPropertyOp7
 70
     0
102
RTVSPropertyOp8
 70
     0
102
RTVSPropertyOp9
 70
     0
102
RTVSPropertyOp10
 70
     0
102
RTVSPropertyOp11
 70
     0
102
RTVSPropertyOp12
 70
     0
102
RTVSPropertyOp13
 70
     0
102
RTVSPropertyOp14
 70
     2
102
RTVSPropertyOp15
 70
     0
102
RTVSPropertyOp16
 70
     0
102
RTVSPropertyOp17
 70
     0
102
RTVSPropertyOp18
 70
     0
102
RTVSPropertyOp19
 70
     0
102
RTVSPropertyOp20
 70
     0
102
RTVSPropertyOp21
 70
     0
102
RTVSPropertyOp22
 70
     0
102
RTVSPropertyOp23
 70
     0
102
RTVSPropertyOp24
 70
     0
102
RTVSPropertyOp25
 70
     0
102
RTVSPropertyOp26
 70
     0
102
RTVSPropertyOp27
 70
     0
102
RTVSPropertyOp28
 70
     0
102
RTVSPropertyOp29
 70
     0
102
RTVSPropertyOp30
 70
     0
102
RTVSPropertyOp31
 70
     0
102
RTVSPropertyOp32
 70
     0
102
RTVSPropertyOp33
 70
     0
102
RTVSPropertyOp34
 70
     0
102
RTVSPropertyOp35
 70
     0
102
RTVSPropertyOp36
 70
     0
102
RTVSPropertyOp37
 70
     0
102
RTVSPropertyOp38
 70
     0
102
RTVSPropertyOp39
 70
     0
102
RTVSPropertyOp40
 70
     0
102
RTVSPropertyOp41
 70
     0
102
RTVSPropertyOp42
 70
     0
102
RTVSPropertyOp43
 70
     0
102
RTVSPropertyOp44
 70
     0
102
RTVSPropertyOp45
 70
     0
102
RTVSPropertyOp46
 70
     0
102
RTVSPropertyOp47
 70
     0
102
RTVSPropertyOp48
 70
     0
102
RTVSPropertyOp49
 70
     0
102
RTVSPropertyOp50
 70
     0
102
RTVSPropertyOp51
 70
     0
102
RTVSPropertyOp52
 70
     0
102
RTVSPropertyOp53
 70
     0
102
RTVSPropertyOp54
 70
     0
102
RTVSPropertyOp55
 70
     0
102
RTVSPropertyOp56
 70
     0
102
RTVSPropertyOp57
 70
     0
102
RTVSPropertyOp58
 70
     1
102
RTVSPropertyOp59
 70
     1
102
RTVSPropertyOp60
 70
     1
102
RTVSPropertyOp61
 70
     1
102
RTVSPropertyOp62
 70
     1
  0
XRECORD
  5
185DE
102
{ACAD_REACTORS
330
185DD
102
}
330
185DD
100
AcDbXrecord
280
     1
102
RTVSPost2010Prop28
280
     0
102
RTVSPost2010PropOp28
 70
     1
102
RTVSPost2010Prop29
280
     1
102
RTVSPost2010PropOp29
 70
     1
102
RTVSPost2010Prop30
280
     1
102
RTVSPost2010PropOp30
 70
     1
102
RTVSPost2010Prop31
280
     0
102
RTVSPost2010PropOp31
 70
     1
102
RTVSPost2010Prop32
280
     0
102
RTVSPost2010PropOp32
 70
     1
102
RTVSPost2010Prop33
280
     0
102
RTVSPost2010PropOp33
 70
     1
102
RTVSPost2010Prop34
280
     0
102
RTVSPost2010PropOp34
 70
     1
102
RTVSPost2010Prop35
280
     0
102
RTVSPost2010PropOp35
 70
     1
102
RTVSPost2010Prop36
280
     0
102
RTVSPost2010PropOp36
 70
     1
102
RTVSPost2010Prop37
 90
       50
102
RTVSPost2010PropOp37
 70
     1
102
RTVSPost2010Prop38
140
0.0
102
RTVSPost2010PropOp38
 70
     1
102
RTVSPost2010Prop39
140
1.0
102
RTVSPost2010PropOp39
 70
     1
102
RTVSPost2010Prop40
 90
        0
102
RTVSPost2010PropOp40
 70
     1
102
RTVSPost2010Prop41ColorIndex
 90
       18
102
RTVSPost2010Prop41ColorRGB
 90
        0
102
RTVSPost2010PropOp41
 70
     1
102
RTVSPost2010Prop42
 90
       50
102
RTVSPost2010PropOp42
 70
     1
102
RTVSPost2010Prop43
 90
        3
102
RTVSPost2010PropOp43
 70
     1
102
RTVSPost2010Prop44ColorIndex
 90
        5
102
RTVSPost2010Prop44ColorRGB
 90
      255
102
RTVSPost2010PropOp44
 70
     1
102
RTVSPost2010Prop45
280
     0
102
RTVSPost2010PropOp45
 70
     1
102
RTVSPost2010Prop46
 90
       50
102
RTVSPost2010PropOp46
 70
     1
102
RTVSPost2010Prop47
 90
       50
102
RTVSPost2010PropOp47
 70
     1
102
RTVSPost2010Prop48
 90
       50
102
RTVSPost2010PropOp48
 70
     1
102
RTVSPost2010Prop49
280
     0
102
RTVSPost2010PropOp49
 70
     1
102
RTVSPost2010Prop50
 90
       50
102
RTVSPost2010PropOp50
 70
     1
102
RTVSPost2010Prop51ColorIndex
 90
      256
102
RTVSPost2010Prop51ColorRGB
 90
-16777216
102
RTVSPost2010PropOp51
 70
     0
102
RTVSPost2010Prop52
140
1.0
102
RTVSPost2010PropOp52
 70
     0
102
RTVSPost2010Prop53
 90
        2
102
RTVSPost2010PropOp53
 70
     1
102
RTVSPost2010Prop54
  1
strokes_ogs.tif
102
RTVSPost2010PropOp54
 70
     1
102
RTVSPost2010Prop55
280
     0
102
RTVSPost2010PropOp55
 70
     1
102
RTVSPost2010Prop56
140
1.0
102
RTVSPost2010PropOp56
 70
     1
102
RTVSPost2010Prop57
140
1.0
102
RTVSPost2010PropOp57
 70
     1
102
RTVSPropertyOp0
 70
     1
102
RTVSPropertyOp1
 70
     1
102
RTVSPropertyOp2
 70
     1
102
RTVSPropertyOp3
 70
     1
102
RTVSPropertyOp4
 70
     1
102
RTVSPropertyOp5
 70
     1
102
RTVSPropertyOp6
 70
     1
102
RTVSPropertyOp7
 70
     1
102
RTVSPropertyOp8
 70
     1
102
RTVSPropertyOp9
 70
     1
102
RTVSPropertyOp10
 70
     1
102
RTVSPropertyOp11
 70
     1
102
RTVSPropertyOp12
 70
     1
102
RTVSPropertyOp13
 70
     1
102
RTVSPropertyOp14
 70
     1
102
RTVSPropertyOp15
 70
     1
102
RTVSPropertyOp16
 70
     1
102
RTVSPropertyOp17
 70
     1
102
RTVSPropertyOp18
 70
     1
102
RTVSPropertyOp19
 70
     1
102
RTVSPropertyOp20
 70
     1
102
RTVSPropertyOp21
 70
     1
102
RTVSPropertyOp22
 70
     1
102
RTVSPropertyOp23
 70
     1
102
RTVSPropertyOp24
 70
     1
102
RTVSPropertyOp25
 70
     1
102
RTVSPropertyOp26
 70
     1
102
RTVSPropertyOp27
 70
     1
102
RTVSPropertyOp28
 70
     1
102
RTVSPropertyOp29
 70
     1
102
RTVSPropertyOp30
 70
     1
102
RTVSPropertyOp31
 70
     1
102
RTVSPropertyOp32
 70
     1
102
RTVSPropertyOp33
 70
     1
102
RTVSPropertyOp34
 70
     1
102
RTVSPropertyOp35
 70
     1
102
RTVSPropertyOp36
 70
     1
102
RTVSPropertyOp37
 70
     1
102
RTVSPropertyOp38
 70
     1
102
RTVSPropertyOp39
 70
     1
102
RTVSPropertyOp40
 70
     1
102
RTVSPropertyOp41
 70
     1
102
RTVSPropertyOp42
 70
     1
102
RTVSPropertyOp43
 70
     1
102
RTVSPropertyOp44
 70
     1
102
RTVSPropertyOp45
 70
     1
102
RTVSPropertyOp46
 70
     1
102
RTVSPropertyOp47
 70
     1
102
RTVSPropertyOp48
 70
     1
102
RTVSPropertyOp49
 70
     1
102
RTVSPropertyOp50
 70
     1
102
RTVSPropertyOp51
 70
     0
102
RTVSPropertyOp52
 70
     0
102
RTVSPropertyOp53
 70
     1
102
RTVSPropertyOp54
 70
     1
102
RTVSPropertyOp55
 70
     1
102
RTVSPropertyOp56
 70
     1
102
RTVSPropertyOp57
 70
     1
102
RTVSPropertyOp58
 70
     1
102
RTVSPropertyOp59
 70
     1
102
RTVSPropertyOp60
 70
     1
102
RTVSPropertyOp61
 70
     1
102
RTVSPropertyOp62
 70
     1
  0
XRECORD
  5
185F8
102
{ACAD_REACTORS
330
185F7
102
}
330
185F7
100
AcDbXrecord
280
     1
102
RTVSPost2010Prop28
280
     0
102
RTVSPost2010PropOp28
 70
     1
102
RTVSPost2010Prop29
280
     1
102
RTVSPost2010PropOp29
 70
     1
102
RTVSPost2010Prop30
280
     1
102
RTVSPost2010PropOp30
 70
     1
102
RTVSPost2010Prop31
280
     0
102
RTVSPost2010PropOp31
 70
     1
102
RTVSPost2010Prop32
280
     0
102
RTVSPost2010PropOp32
 70
     1
102
RTVSPost2010Prop33
280
     0
102
RTVSPost2010PropOp33
 70
     1
102
RTVSPost2010Prop34
280
     0
102
RTVSPost2010PropOp34
 70
     1
102
RTVSPost2010Prop35
280
     0
102
RTVSPost2010PropOp35
 70
     1
102
RTVSPost2010Prop36
280
     0
102
RTVSPost2010PropOp36
 70
     1
102
RTVSPost2010Prop37
 90
       50
102
RTVSPost2010PropOp37
 70
     1
102
RTVSPost2010Prop38
140
0.0
102
RTVSPost2010PropOp38
 70
     1
102
RTVSPost2010Prop39
140
1.0
102
RTVSPost2010PropOp39
 70
     1
102
RTVSPost2010Prop40
 90
        0
102
RTVSPost2010PropOp40
 70
     1
102
RTVSPost2010Prop41ColorIndex
 90
       18
102
RTVSPost2010Prop41ColorRGB
 90
        0
102
RTVSPost2010PropOp41
 70
     1
102
RTVSPost2010Prop42
 90
       50
102
RTVSPost2010PropOp42
 70
     1
102
RTVSPost2010Prop43
 90
        3
102
RTVSPost2010PropOp43
 70
     1
102
RTVSPost2010Prop44ColorIndex
 90
        5
102
RTVSPost2010Prop44ColorRGB
 90
      255
102
RTVSPost2010PropOp44
 70
     1
102
RTVSPost2010Prop45
280
     0
102
RTVSPost2010PropOp45
 70
     1
102
RTVSPost2010Prop46
 90
       50
102
RTVSPost2010PropOp46
 70
     1
102
RTVSPost2010Prop47
 90
       50
102
RTVSPost2010PropOp47
 70
     1
102
RTVSPost2010Prop48
 90
       50
102
RTVSPost2010PropOp48
 70
     1
102
RTVSPost2010Prop49
280
     0
102
RTVSPost2010PropOp49
 70
     1
102
RTVSPost2010Prop50
 90
       50
102
RTVSPost2010PropOp50
 70
     1
102
RTVSPost2010Prop51ColorIndex
 90
      256
102
RTVSPost2010Prop51ColorRGB
 90
-16777216
102
RTVSPost2010PropOp51
 70
     0
102
RTVSPost2010Prop52
140
1.0
102
RTVSPost2010PropOp52
 70
     0
102
RTVSPost2010Prop53
 90
        2
102
RTVSPost2010PropOp53
 70
     1
102
RTVSPost2010Prop54
  1
strokes_ogs.tif
102
RTVSPost2010PropOp54
 70
     1
102
RTVSPost2010Prop55
280
     0
102
RTVSPost2010PropOp55
 70
     1
102
RTVSPost2010Prop56
140
1.0
102
RTVSPost2010PropOp56
 70
     1
102
RTVSPost2010Prop57
140
1.0
102
RTVSPost2010PropOp57
 70
     1
102
RTVSPropertyOp0
 70
     1
102
RTVSPropertyOp1
 70
     1
102
RTVSPropertyOp2
 70
     1
102
RTVSPropertyOp3
 70
     1
102
RTVSPropertyOp4
 70
     1
102
RTVSPropertyOp5
 70
     1
102
RTVSPropertyOp6
 70
     1
102
RTVSPropertyOp7
 70
     1
102
RTVSPropertyOp8
 70
     1
102
RTVSPropertyOp9
 70
     1
102
RTVSPropertyOp10
 70
     1
102
RTVSPropertyOp11
 70
     1
102
RTVSPropertyOp12
 70
     1
102
RTVSPropertyOp13
 70
     1
102
RTVSPropertyOp14
 70
     1
102
RTVSPropertyOp15
 70
     1
102
RTVSPropertyOp16
 70
     1
102
RTVSPropertyOp17
 70
     1
102
RTVSPropertyOp18
 70
     1
102
RTVSPropertyOp19
 70
     1
102
RTVSPropertyOp20
 70
     1
102
RTVSPropertyOp21
 70
     1
102
RTVSPropertyOp22
 70
     1
102
RTVSPropertyOp23
 70
     1
102
RTVSPropertyOp24
 70
     1
102
RTVSPropertyOp25
 70
     1
102
RTVSPropertyOp26
 70
     1
102
RTVSPropertyOp27
 70
     1
102
RTVSPropertyOp28
 70
     1
102
RTVSPropertyOp29
 70
     1
102
RTVSPropertyOp30
 70
     1
102
RTVSPropertyOp31
 70
     1
102
RTVSPropertyOp32
 70
     1
102
RTVSPropertyOp33
 70
     1
102
RTVSPropertyOp34
 70
     1
102
RTVSPropertyOp35
 70
     1
102
RTVSPropertyOp36
 70
     1
102
RTVSPropertyOp37
 70
     1
102
RTVSPropertyOp38
 70
     1
102
RTVSPropertyOp39
 70
     1
102
RTVSPropertyOp40
 70
     1
102
RTVSPropertyOp41
 70
     1
102
RTVSPropertyOp42
 70
     1
102
RTVSPropertyOp43
 70
     1
102
RTVSPropertyOp44
 70
     1
102
RTVSPropertyOp45
 70
     1
102
RTVSPropertyOp46
 70
     1
102
RTVSPropertyOp47
 70
     1
102
RTVSPropertyOp48
 70
     1
102
RTVSPropertyOp49
 70
     1
102
RTVSPropertyOp50
 70
     1
102
RTVSPropertyOp51
 70
     0
102
RTVSPropertyOp52
 70
     0
102
RTVSPropertyOp53
 70
     1
102
RTVSPropertyOp54
 70
     1
102
RTVSPropertyOp55
 70
     1
102
RTVSPropertyOp56
 70
     1
102
RTVSPropertyOp57
 70
     1
102
RTVSPropertyOp58
 70
     1
102
RTVSPropertyOp59
 70
     1
102
RTVSPropertyOp60
 70
     1
102
RTVSPropertyOp61
 70
     1
102
RTVSPropertyOp62
 70
     1
  0
XRECORD
  5
185F6
102
{ACAD_REACTORS
330
185F5
102
}
330
185F5
100
AcDbXrecord
280
     1
102
RTVSPost2010Prop28
280
     0
102
RTVSPost2010PropOp28
 70
     1
102
RTVSPost2010Prop29
280
     1
102
RTVSPost2010PropOp29
 70
     1
102
RTVSPost2010Prop30
280
     1
102
RTVSPost2010PropOp30
 70
     1
102
RTVSPost2010Prop31
280
     0
102
RTVSPost2010PropOp31
 70
     1
102
RTVSPost2010Prop32
280
     0
102
RTVSPost2010PropOp32
 70
     1
102
RTVSPost2010Prop33
280
     0
102
RTVSPost2010PropOp33
 70
     1
102
RTVSPost2010Prop34
280
     0
102
RTVSPost2010PropOp34
 70
     1
102
RTVSPost2010Prop35
280
     0
102
RTVSPost2010PropOp35
 70
     1
102
RTVSPost2010Prop36
280
     0
102
RTVSPost2010PropOp36
 70
     1
102
RTVSPost2010Prop37
 90
       50
102
RTVSPost2010PropOp37
 70
     1
102
RTVSPost2010Prop38
140
0.0
102
RTVSPost2010PropOp38
 70
     1
102
RTVSPost2010Prop39
140
1.0
102
RTVSPost2010PropOp39
 70
     1
102
RTVSPost2010Prop40
 90
        0
102
RTVSPost2010PropOp40
 70
     1
102
RTVSPost2010Prop41ColorIndex
 90
       18
102
RTVSPost2010Prop41ColorRGB
 90
        0
102
RTVSPost2010PropOp41
 70
     1
102
RTVSPost2010Prop42
 90
       50
102
RTVSPost2010PropOp42
 70
     1
102
RTVSPost2010Prop43
 90
        3
102
RTVSPost2010PropOp43
 70
     1
102
RTVSPost2010Prop44ColorIndex
 90
        5
102
RTVSPost2010Prop44ColorRGB
 90
      255
102
RTVSPost2010PropOp44
 70
     1
102
RTVSPost2010Prop45
280
     0
102
RTVSPost2010PropOp45
 70
     1
102
RTVSPost2010Prop46
 90
       50
102
RTVSPost2010PropOp46
 70
     1
102
RTVSPost2010Prop47
 90
       50
102
RTVSPost2010PropOp47
 70
     1
102
RTVSPost2010Prop48
 90
       50
102
RTVSPost2010PropOp48
 70
     1
102
RTVSPost2010Prop49
280
     0
102
RTVSPost2010PropOp49
 70
     1
102
RTVSPost2010Prop50
 90
       50
102
RTVSPost2010PropOp50
 70
     1
102
RTVSPost2010Prop51ColorIndex
 90
      256
102
RTVSPost2010Prop51ColorRGB
 90
-16777216
102
RTVSPost2010PropOp51
 70
     0
102
RTVSPost2010Prop52
140
1.0
102
RTVSPost2010PropOp52
 70
     0
102
RTVSPost2010Prop53
 90
        2
102
RTVSPost2010PropOp53
 70
     1
102
RTVSPost2010Prop54
  1
strokes_ogs.tif
102
RTVSPost2010PropOp54
 70
     1
102
RTVSPost2010Prop55
280
     0
102
RTVSPost2010PropOp55
 70
     1
102
RTVSPost2010Prop56
140
1.0
102
RTVSPost2010PropOp56
 70
     1
102
RTVSPost2010Prop57
140
1.0
102
RTVSPost2010PropOp57
 70
     1
102
RTVSPropertyOp0
 70
     1
102
RTVSPropertyOp1
 70
     1
102
RTVSPropertyOp2
 70
     1
102
RTVSPropertyOp3
 70
     1
102
RTVSPropertyOp4
 70
     1
102
RTVSPropertyOp5
 70
     1
102
RTVSPropertyOp6
 70
     1
102
RTVSPropertyOp7
 70
     1
102
RTVSPropertyOp8
 70
     1
102
RTVSPropertyOp9
 70
     1
102
RTVSPropertyOp10
 70
     1
102
RTVSPropertyOp11
 70
     1
102
RTVSPropertyOp12
 70
     1
102
RTVSPropertyOp13
 70
     1
102
RTVSPropertyOp14
 70
     1
102
RTVSPropertyOp15
 70
     1
102
RTVSPropertyOp16
 70
     1
102
RTVSPropertyOp17
 70
     1
102
RTVSPropertyOp18
 70
     1
102
RTVSPropertyOp19
 70
     1
102
RTVSPropertyOp20
 70
     1
102
RTVSPropertyOp21
 70
     1
102
RTVSPropertyOp22
 70
     1
102
RTVSPropertyOp23
 70
     1
102
RTVSPropertyOp24
 70
     1
102
RTVSPropertyOp25
 70
     1
102
RTVSPropertyOp26
 70
     1
102
RTVSPropertyOp27
 70
     1
102
RTVSPropertyOp28
 70
     1
102
RTVSPropertyOp29
 70
     1
102
RTVSPropertyOp30
 70
     1
102
RTVSPropertyOp31
 70
     1
102
RTVSPropertyOp32
 70
     1
102
RTVSPropertyOp33
 70
     1
102
RTVSPropertyOp34
 70
     1
102
RTVSPropertyOp35
 70
     1
102
RTVSPropertyOp36
 70
     1
102
RTVSPropertyOp37
 70
     1
102
RTVSPropertyOp38
 70
     1
102
RTVSPropertyOp39
 70
     1
102
RTVSPropertyOp40
 70
     1
102
RTVSPropertyOp41
 70
     1
102
RTVSPropertyOp42
 70
     1
102
RTVSPropertyOp43
 70
     1
102
RTVSPropertyOp44
 70
     1
102
RTVSPropertyOp45
 70
     1
102
RTVSPropertyOp46
 70
     1
102
RTVSPropertyOp47
 70
     1
102
RTVSPropertyOp48
 70
     1
102
RTVSPropertyOp49
 70
     1
102
RTVSPropertyOp50
 70
     1
102
RTVSPropertyOp51
 70
     0
102
RTVSPropertyOp52
 70
     0
102
RTVSPropertyOp53
 70
     1
102
RTVSPropertyOp54
 70
     1
102
RTVSPropertyOp55
 70
     1
102
RTVSPropertyOp56
 70
     1
102
RTVSPropertyOp57
 70
     1
102
RTVSPropertyOp58
 70
     1
102
RTVSPropertyOp59
 70
     1
102
RTVSPropertyOp60
 70
     1
102
RTVSPropertyOp61
 70
     1
102
RTVSPropertyOp62
 70
     1
  0
XRECORD
  5
185F0
102
{ACAD_REACTORS
330
185EF
102
}
330
185EF
100
AcDbXrecord
280
     1
102
RTVSPost2010Prop28
280
     0
102
RTVSPost2010PropOp28
 70
     1
102
RTVSPost2010Prop29
280
     1
102
RTVSPost2010PropOp29
 70
     1
102
RTVSPost2010Prop30
280
     1
102
RTVSPost2010PropOp30
 70
     1
102
RTVSPost2010Prop31
280
     0
102
RTVSPost2010PropOp31
 70
     1
102
RTVSPost2010Prop32
280
     0
102
RTVSPost2010PropOp32
 70
     1
102
RTVSPost2010Prop33
280
     0
102
RTVSPost2010PropOp33
 70
     1
102
RTVSPost2010Prop34
280
     0
102
RTVSPost2010PropOp34
 70
     1
102
RTVSPost2010Prop35
280
     0
102
RTVSPost2010PropOp35
 70
     1
102
RTVSPost2010Prop36
280
     0
102
RTVSPost2010PropOp36
 70
     1
102
RTVSPost2010Prop37
 90
       50
102
RTVSPost2010PropOp37
 70
     1
102
RTVSPost2010Prop38
140
0.0
102
RTVSPost2010PropOp38
 70
     1
102
RTVSPost2010Prop39
140
1.0
102
RTVSPost2010PropOp39
 70
     1
102
RTVSPost2010Prop40
 90
        0
102
RTVSPost2010PropOp40
 70
     1
102
RTVSPost2010Prop41ColorIndex
 90
       18
102
RTVSPost2010Prop41ColorRGB
 90
        0
102
RTVSPost2010PropOp41
 70
     1
102
RTVSPost2010Prop42
 90
       50
102
RTVSPost2010PropOp42
 70
     1
102
RTVSPost2010Prop43
 90
        3
102
RTVSPost2010PropOp43
 70
     1
102
RTVSPost2010Prop44ColorIndex
 90
        5
102
RTVSPost2010Prop44ColorRGB
 90
      255
102
RTVSPost2010PropOp44
 70
     1
102
RTVSPost2010Prop45
280
     0
102
RTVSPost2010PropOp45
 70
     1
102
RTVSPost2010Prop46
 90
       50
102
RTVSPost2010PropOp46
 70
     1
102
RTVSPost2010Prop47
 90
       50
102
RTVSPost2010PropOp47
 70
     1
102
RTVSPost2010Prop48
 90
       50
102
RTVSPost2010PropOp48
 70
     1
102
RTVSPost2010Prop49
280
     0
102
RTVSPost2010PropOp49
 70
     1
102
RTVSPost2010Prop50
 90
       50
102
RTVSPost2010PropOp50
 70
     1
102
RTVSPost2010Prop51ColorIndex
 90
      256
102
RTVSPost2010Prop51ColorRGB
 90
-16777216
102
RTVSPost2010PropOp51
 70
     0
102
RTVSPost2010Prop52
140
1.0
102
RTVSPost2010PropOp52
 70
     0
102
RTVSPost2010Prop53
 90
        2
102
RTVSPost2010PropOp53
 70
     1
102
RTVSPost2010Prop54
  1
strokes_ogs.tif
102
RTVSPost2010PropOp54
 70
     1
102
RTVSPost2010Prop55
280
     0
102
RTVSPost2010PropOp55
 70
     1
102
RTVSPost2010Prop56
140
1.0
102
RTVSPost2010PropOp56
 70
     1
102
RTVSPost2010Prop57
140
1.0
102
RTVSPost2010PropOp57
 70
     1
102
RTVSPropertyOp0
 70
     1
102
RTVSPropertyOp1
 70
     1
102
RTVSPropertyOp2
 70
     1
102
RTVSPropertyOp3
 70
     1
102
RTVSPropertyOp4
 70
     1
102
RTVSPropertyOp5
 70
     1
102
RTVSPropertyOp6
 70
     1
102
RTVSPropertyOp7
 70
     1
102
RTVSPropertyOp8
 70
     1
102
RTVSPropertyOp9
 70
     1
102
RTVSPropertyOp10
 70
     1
102
RTVSPropertyOp11
 70
     1
102
RTVSPropertyOp12
 70
     1
102
RTVSPropertyOp13
 70
     1
102
RTVSPropertyOp14
 70
     1
102
RTVSPropertyOp15
 70
     1
102
RTVSPropertyOp16
 70
     1
102
RTVSPropertyOp17
 70
     1
102
RTVSPropertyOp18
 70
     1
102
RTVSPropertyOp19
 70
     1
102
RTVSPropertyOp20
 70
     1
102
RTVSPropertyOp21
 70
     1
102
RTVSPropertyOp22
 70
     1
102
RTVSPropertyOp23
 70
     1
102
RTVSPropertyOp24
 70
     1
102
RTVSPropertyOp25
 70
     1
102
RTVSPropertyOp26
 70
     1
102
RTVSPropertyOp27
 70
     1
102
RTVSPropertyOp28
 70
     1
102
RTVSPropertyOp29
 70
     1
102
RTVSPropertyOp30
 70
     1
102
RTVSPropertyOp31
 70
     1
102
RTVSPropertyOp32
 70
     1
102
RTVSPropertyOp33
 70
     1
102
RTVSPropertyOp34
 70
     1
102
RTVSPropertyOp35
 70
     1
102
RTVSPropertyOp36
 70
     1
102
RTVSPropertyOp37
 70
     1
102
RTVSPropertyOp38
 70
     1
102
RTVSPropertyOp39
 70
     1
102
RTVSPropertyOp40
 70
     1
102
RTVSPropertyOp41
 70
     1
102
RTVSPropertyOp42
 70
     1
102
RTVSPropertyOp43
 70
     1
102
RTVSPropertyOp44
 70
     1
102
RTVSPropertyOp45
 70
     1
102
RTVSPropertyOp46
 70
     1
102
RTVSPropertyOp47
 70
     1
102
RTVSPropertyOp48
 70
     1
102
RTVSPropertyOp49
 70
     1
102
RTVSPropertyOp50
 70
     1
102
RTVSPropertyOp51
 70
     0
102
RTVSPropertyOp52
 70
     0
102
RTVSPropertyOp53
 70
     1
102
RTVSPropertyOp54
 70
     1
102
RTVSPropertyOp55
 70
     1
102
RTVSPropertyOp56
 70
     1
102
RTVSPropertyOp57
 70
     1
102
RTVSPropertyOp58
 70
     1
102
RTVSPropertyOp59
 70
     1
102
RTVSPropertyOp60
 70
     1
102
RTVSPropertyOp61
 70
     1
102
RTVSPropertyOp62
 70
     1
  0
XRECORD
  5
185F2
102
{ACAD_REACTORS
330
185F1
102
}
330
185F1
100
AcDbXrecord
280
     1
102
RTVSPost2010Prop28
280
     0
102
RTVSPost2010PropOp28
 70
     1
102
RTVSPost2010Prop29
280
     1
102
RTVSPost2010PropOp29
 70
     1
102
RTVSPost2010Prop30
280
     1
102
RTVSPost2010PropOp30
 70
     1
102
RTVSPost2010Prop31
280
     0
102
RTVSPost2010PropOp31
 70
     1
102
RTVSPost2010Prop32
280
     0
102
RTVSPost2010PropOp32
 70
     1
102
RTVSPost2010Prop33
280
     0
102
RTVSPost2010PropOp33
 70
     1
102
RTVSPost2010Prop34
280
     0
102
RTVSPost2010PropOp34
 70
     1
102
RTVSPost2010Prop35
280
     0
102
RTVSPost2010PropOp35
 70
     1
102
RTVSPost2010Prop36
280
     0
102
RTVSPost2010PropOp36
 70
     1
102
RTVSPost2010Prop37
 90
       50
102
RTVSPost2010PropOp37
 70
     1
102
RTVSPost2010Prop38
140
0.0
102
RTVSPost2010PropOp38
 70
     1
102
RTVSPost2010Prop39
140
1.0
102
RTVSPost2010PropOp39
 70
     1
102
RTVSPost2010Prop40
 90
        0
102
RTVSPost2010PropOp40
 70
     1
102
RTVSPost2010Prop41ColorIndex
 90
       18
102
RTVSPost2010Prop41ColorRGB
 90
        0
102
RTVSPost2010PropOp41
 70
     1
102
RTVSPost2010Prop42
 90
       50
102
RTVSPost2010PropOp42
 70
     1
102
RTVSPost2010Prop43
 90
        3
102
RTVSPost2010PropOp43
 70
     1
102
RTVSPost2010Prop44ColorIndex
 90
        5
102
RTVSPost2010Prop44ColorRGB
 90
      255
102
RTVSPost2010PropOp44
 70
     1
102
RTVSPost2010Prop45
280
     0
102
RTVSPost2010PropOp45
 70
     1
102
RTVSPost2010Prop46
 90
       50
102
RTVSPost2010PropOp46
 70
     1
102
RTVSPost2010Prop47
 90
       50
102
RTVSPost2010PropOp47
 70
     1
102
RTVSPost2010Prop48
 90
       50
102
RTVSPost2010PropOp48
 70
     1
102
RTVSPost2010Prop49
280
     0
102
RTVSPost2010PropOp49
 70
     1
102
RTVSPost2010Prop50
 90
       50
102
RTVSPost2010PropOp50
 70
     1
102
RTVSPost2010Prop51ColorIndex
 90
      256
102
RTVSPost2010Prop51ColorRGB
 90
-16777216
102
RTVSPost2010PropOp51
 70
     0
102
RTVSPost2010Prop52
140
1.0
102
RTVSPost2010PropOp52
 70
     0
102
RTVSPost2010Prop53
 90
        2
102
RTVSPost2010PropOp53
 70
     1
102
RTVSPost2010Prop54
  1
strokes_ogs.tif
102
RTVSPost2010PropOp54
 70
     1
102
RTVSPost2010Prop55
280
     0
102
RTVSPost2010PropOp55
 70
     1
102
RTVSPost2010Prop56
140
1.0
102
RTVSPost2010PropOp56
 70
     1
102
RTVSPost2010Prop57
140
1.0
102
RTVSPost2010PropOp57
 70
     1
102
RTVSPropertyOp0
 70
     1
102
RTVSPropertyOp1
 70
     1
102
RTVSPropertyOp2
 70
     1
102
RTVSPropertyOp3
 70
     1
102
RTVSPropertyOp4
 70
     1
102
RTVSPropertyOp5
 70
     1
102
RTVSPropertyOp6
 70
     1
102
RTVSPropertyOp7
 70
     1
102
RTVSPropertyOp8
 70
     1
102
RTVSPropertyOp9
 70
     1
102
RTVSPropertyOp10
 70
     1
102
RTVSPropertyOp11
 70
     1
102
RTVSPropertyOp12
 70
     1
102
RTVSPropertyOp13
 70
     1
102
RTVSPropertyOp14
 70
     1
102
RTVSPropertyOp15
 70
     1
102
RTVSPropertyOp16
 70
     1
102
RTVSPropertyOp17
 70
     1
102
RTVSPropertyOp18
 70
     1
102
RTVSPropertyOp19
 70
     1
102
RTVSPropertyOp20
 70
     1
102
RTVSPropertyOp21
 70
     1
102
RTVSPropertyOp22
 70
     1
102
RTVSPropertyOp23
 70
     1
102
RTVSPropertyOp24
 70
     1
102
RTVSPropertyOp25
 70
     1
102
RTVSPropertyOp26
 70
     1
102
RTVSPropertyOp27
 70
     1
102
RTVSPropertyOp28
 70
     1
102
RTVSPropertyOp29
 70
     1
102
RTVSPropertyOp30
 70
     1
102
RTVSPropertyOp31
 70
     1
102
RTVSPropertyOp32
 70
     1
102
RTVSPropertyOp33
 70
     1
102
RTVSPropertyOp34
 70
     1
102
RTVSPropertyOp35
 70
     1
102
RTVSPropertyOp36
 70
     1
102
RTVSPropertyOp37
 70
     1
102
RTVSPropertyOp38
 70
     1
102
RTVSPropertyOp39
 70
     1
102
RTVSPropertyOp40
 70
     1
102
RTVSPropertyOp41
 70
     1
102
RTVSPropertyOp42
 70
     1
102
RTVSPropertyOp43
 70
     1
102
RTVSPropertyOp44
 70
     1
102
RTVSPropertyOp45
 70
     1
102
RTVSPropertyOp46
 70
     1
102
RTVSPropertyOp47
 70
     1
102
RTVSPropertyOp48
 70
     1
102
RTVSPropertyOp49
 70
     1
102
RTVSPropertyOp50
 70
     1
102
RTVSPropertyOp51
 70
     0
102
RTVSPropertyOp52
 70
     0
102
RTVSPropertyOp53
 70
     1
102
RTVSPropertyOp54
 70
     1
102
RTVSPropertyOp55
 70
     1
102
RTVSPropertyOp56
 70
     1
102
RTVSPropertyOp57
 70
     1
102
RTVSPropertyOp58
 70
     1
102
RTVSPropertyOp59
 70
     1
102
RTVSPropertyOp60
 70
     1
102
RTVSPropertyOp61
 70
     1
102
RTVSPropertyOp62
 70
     1
  0
XRECORD
  5
185E4
102
{ACAD_REACTORS
330
185E3
102
}
330
185E3
100
AcDbXrecord
280
     1
102
RTVSPost2010Prop28
280
     0
102
RTVSPost2010PropOp28
 70
     1
102
RTVSPost2010Prop29
280
     1
102
RTVSPost2010PropOp29
 70
     1
102
RTVSPost2010Prop30
280
     1
102
RTVSPost2010PropOp30
 70
     1
102
RTVSPost2010Prop31
280
     0
102
RTVSPost2010PropOp31
 70
     1
102
RTVSPost2010Prop32
280
     0
102
RTVSPost2010PropOp32
 70
     1
102
RTVSPost2010Prop33
280
     0
102
RTVSPost2010PropOp33
 70
     1
102
RTVSPost2010Prop34
280
     0
102
RTVSPost2010PropOp34
 70
     1
102
RTVSPost2010Prop35
280
     0
102
RTVSPost2010PropOp35
 70
     1
102
RTVSPost2010Prop36
280
     0
102
RTVSPost2010PropOp36
 70
     1
102
RTVSPost2010Prop37
 90
       50
102
RTVSPost2010PropOp37
 70
     1
102
RTVSPost2010Prop38
140
0.0
102
RTVSPost2010PropOp38
 70
     1
102
RTVSPost2010Prop39
140
1.0
102
RTVSPost2010PropOp39
 70
     1
102
RTVSPost2010Prop40
 90
        0
102
RTVSPost2010PropOp40
 70
     1
102
RTVSPost2010Prop41ColorIndex
 90
       18
102
RTVSPost2010Prop41ColorRGB
 90
        0
102
RTVSPost2010PropOp41
 70
     1
102
RTVSPost2010Prop42
 90
       50
102
RTVSPost2010PropOp42
 70
     1
102
RTVSPost2010Prop43
 90
        3
102
RTVSPost2010PropOp43
 70
     1
102
RTVSPost2010Prop44ColorIndex
 90
        5
102
RTVSPost2010Prop44ColorRGB
 90
      255
102
RTVSPost2010PropOp44
 70
     1
102
RTVSPost2010Prop45
280
     0
102
RTVSPost2010PropOp45
 70
     1
102
RTVSPost2010Prop46
 90
       50
102
RTVSPost2010PropOp46
 70
     1
102
RTVSPost2010Prop47
 90
       50
102
RTVSPost2010PropOp47
 70
     1
102
RTVSPost2010Prop48
 90
       50
102
RTVSPost2010PropOp48
 70
     1
102
RTVSPost2010Prop49
280
     0
102
RTVSPost2010PropOp49
 70
     1
102
RTVSPost2010Prop50
 90
       50
102
RTVSPost2010PropOp50
 70
     1
102
RTVSPost2010Prop51ColorIndex
 90
      256
102
RTVSPost2010Prop51ColorRGB
 90
-16777216
102
RTVSPost2010PropOp51
 70
     0
102
RTVSPost2010Prop52
140
1.0
102
RTVSPost2010PropOp52
 70
     0
102
RTVSPost2010Prop53
 90
        2
102
RTVSPost2010PropOp53
 70
     1
102
RTVSPost2010Prop54
  1
strokes_ogs.tif
102
RTVSPost2010PropOp54
 70
     1
102
RTVSPost2010Prop55
280
     0
102
RTVSPost2010PropOp55
 70
     1
102
RTVSPost2010Prop56
140
1.0
102
RTVSPost2010PropOp56
 70
     1
102
RTVSPost2010Prop57
140
1.0
102
RTVSPost2010PropOp57
 70
     1
102
RTVSPropertyOp0
 70
     1
102
RTVSPropertyOp1
 70
     1
102
RTVSPropertyOp2
 70
     1
102
RTVSPropertyOp3
 70
     1
102
RTVSPropertyOp4
 70
     1
102
RTVSPropertyOp5
 70
     1
102
RTVSPropertyOp6
 70
     1
102
RTVSPropertyOp7
 70
     1
102
RTVSPropertyOp8
 70
     1
102
RTVSPropertyOp9
 70
     1
102
RTVSPropertyOp10
 70
     1
102
RTVSPropertyOp11
 70
     1
102
RTVSPropertyOp12
 70
     1
102
RTVSPropertyOp13
 70
     1
102
RTVSPropertyOp14
 70
     1
102
RTVSPropertyOp15
 70
     1
102
RTVSPropertyOp16
 70
     1
102
RTVSPropertyOp17
 70
     1
102
RTVSPropertyOp18
 70
     1
102
RTVSPropertyOp19
 70
     1
102
RTVSPropertyOp20
 70
     1
102
RTVSPropertyOp21
 70
     1
102
RTVSPropertyOp22
 70
     1
102
RTVSPropertyOp23
 70
     1
102
RTVSPropertyOp24
 70
     1
102
RTVSPropertyOp25
 70
     1
102
RTVSPropertyOp26
 70
     1
102
RTVSPropertyOp27
 70
     1
102
RTVSPropertyOp28
 70
     1
102
RTVSPropertyOp29
 70
     1
102
RTVSPropertyOp30
 70
     1
102
RTVSPropertyOp31
 70
     1
102
RTVSPropertyOp32
 70
     1
102
RTVSPropertyOp33
 70
     1
102
RTVSPropertyOp34
 70
     1
102
RTVSPropertyOp35
 70
     1
102
RTVSPropertyOp36
 70
     1
102
RTVSPropertyOp37
 70
     1
102
RTVSPropertyOp38
 70
     1
102
RTVSPropertyOp39
 70
     1
102
RTVSPropertyOp40
 70
     1
102
RTVSPropertyOp41
 70
     1
102
RTVSPropertyOp42
 70
     1
102
RTVSPropertyOp43
 70
     1
102
RTVSPropertyOp44
 70
     1
102
RTVSPropertyOp45
 70
     1
102
RTVSPropertyOp46
 70
     1
102
RTVSPropertyOp47
 70
     1
102
RTVSPropertyOp48
 70
     1
102
RTVSPropertyOp49
 70
     1
102
RTVSPropertyOp50
 70
     1
102
RTVSPropertyOp51
 70
     0
102
RTVSPropertyOp52
 70
     0
102
RTVSPropertyOp53
 70
     1
102
RTVSPropertyOp54
 70
     1
102
RTVSPropertyOp55
 70
     1
102
RTVSPropertyOp56
 70
     1
102
RTVSPropertyOp57
 70
     1
102
RTVSPropertyOp58
 70
     1
102
RTVSPropertyOp59
 70
     1
102
RTVSPropertyOp60
 70
     1
102
RTVSPropertyOp61
 70
     1
102
RTVSPropertyOp62
 70
     1
  0
XRECORD
  5
185EC
102
{ACAD_REACTORS
330
185EB
102
}
330
185EB
100
AcDbXrecord
280
     1
102
RTVSPost2010Prop28
280
     0
102
RTVSPost2010PropOp28
 70
     1
102
RTVSPost2010Prop29
280
     1
102
RTVSPost2010PropOp29
 70
     1
102
RTVSPost2010Prop30
280
     1
102
RTVSPost2010PropOp30
 70
     1
102
RTVSPost2010Prop31
280
     0
102
RTVSPost2010PropOp31
 70
     1
102
RTVSPost2010Prop32
280
     0
102
RTVSPost2010PropOp32
 70
     1
102
RTVSPost2010Prop33
280
     0
102
RTVSPost2010PropOp33
 70
     1
102
RTVSPost2010Prop34
280
     0
102
RTVSPost2010PropOp34
 70
     1
102
RTVSPost2010Prop35
280
     0
102
RTVSPost2010PropOp35
 70
     1
102
RTVSPost2010Prop36
280
     0
102
RTVSPost2010PropOp36
 70
     1
102
RTVSPost2010Prop37
 90
       50
102
RTVSPost2010PropOp37
 70
     1
102
RTVSPost2010Prop38
140
0.0
102
RTVSPost2010PropOp38
 70
     1
102
RTVSPost2010Prop39
140
1.0
102
RTVSPost2010PropOp39
 70
     1
102
RTVSPost2010Prop40
 90
        0
102
RTVSPost2010PropOp40
 70
     1
102
RTVSPost2010Prop41ColorIndex
 90
       18
102
RTVSPost2010Prop41ColorRGB
 90
        0
102
RTVSPost2010PropOp41
 70
     1
102
RTVSPost2010Prop42
 90
       50
102
RTVSPost2010PropOp42
 70
     1
102
RTVSPost2010Prop43
 90
        3
102
RTVSPost2010PropOp43
 70
     1
102
RTVSPost2010Prop44ColorIndex
 90
        5
102
RTVSPost2010Prop44ColorRGB
 90
      255
102
RTVSPost2010PropOp44
 70
     1
102
RTVSPost2010Prop45
280
     0
102
RTVSPost2010PropOp45
 70
     1
102
RTVSPost2010Prop46
 90
       50
102
RTVSPost2010PropOp46
 70
     1
102
RTVSPost2010Prop47
 90
       50
102
RTVSPost2010PropOp47
 70
     1
102
RTVSPost2010Prop48
 90
       50
102
RTVSPost2010PropOp48
 70
     1
102
RTVSPost2010Prop49
280
     0
102
RTVSPost2010PropOp49
 70
     1
102
RTVSPost2010Prop50
 90
       50
102
RTVSPost2010PropOp50
 70
     1
102
RTVSPost2010Prop51ColorIndex
 90
      256
102
RTVSPost2010Prop51ColorRGB
 90
-16777216
102
RTVSPost2010PropOp51
 70
     0
102
RTVSPost2010Prop52
140
1.0
102
RTVSPost2010PropOp52
 70
     0
102
RTVSPost2010Prop53
 90
        2
102
RTVSPost2010PropOp53
 70
     1
102
RTVSPost2010Prop54
  1
strokes_ogs.tif
102
RTVSPost2010PropOp54
 70
     1
102
RTVSPost2010Prop55
280
     0
102
RTVSPost2010PropOp55
 70
     1
102
RTVSPost2010Prop56
140
1.0
102
RTVSPost2010PropOp56
 70
     1
102
RTVSPost2010Prop57
140
1.0
102
RTVSPost2010PropOp57
 70
     1
102
RTVSPropertyOp0
 70
     1
102
RTVSPropertyOp1
 70
     1
102
RTVSPropertyOp2
 70
     1
102
RTVSPropertyOp3
 70
     1
102
RTVSPropertyOp4
 70
     1
102
RTVSPropertyOp5
 70
     1
102
RTVSPropertyOp6
 70
     1
102
RTVSPropertyOp7
 70
     1
102
RTVSPropertyOp8
 70
     1
102
RTVSPropertyOp9
 70
     1
102
RTVSPropertyOp10
 70
     1
102
RTVSPropertyOp11
 70
     1
102
RTVSPropertyOp12
 70
     1
102
RTVSPropertyOp13
 70
     1
102
RTVSPropertyOp14
 70
     1
102
RTVSPropertyOp15
 70
     1
102
RTVSPropertyOp16
 70
     1
102
RTVSPropertyOp17
 70
     1
102
RTVSPropertyOp18
 70
     1
102
RTVSPropertyOp19
 70
     1
102
RTVSPropertyOp20
 70
     1
102
RTVSPropertyOp21
 70
     1
102
RTVSPropertyOp22
 70
     1
102
RTVSPropertyOp23
 70
     1
102
RTVSPropertyOp24
 70
     1
102
RTVSPropertyOp25
 70
     1
102
RTVSPropertyOp26
 70
     1
102
RTVSPropertyOp27
 70
     1
102
RTVSPropertyOp28
 70
     1
102
RTVSPropertyOp29
 70
     1
102
RTVSPropertyOp30
 70
     1
102
RTVSPropertyOp31
 70
     1
102
RTVSPropertyOp32
 70
     1
102
RTVSPropertyOp33
 70
     1
102
RTVSPropertyOp34
 70
     1
102
RTVSPropertyOp35
 70
     1
102
RTVSPropertyOp36
 70
     1
102
RTVSPropertyOp37
 70
     1
102
RTVSPropertyOp38
 70
     1
102
RTVSPropertyOp39
 70
     1
102
RTVSPropertyOp40
 70
     1
102
RTVSPropertyOp41
 70
     1
102
RTVSPropertyOp42
 70
     1
102
RTVSPropertyOp43
 70
     1
102
RTVSPropertyOp44
 70
     1
102
RTVSPropertyOp45
 70
     1
102
RTVSPropertyOp46
 70
     1
102
RTVSPropertyOp47
 70
     1
102
RTVSPropertyOp48
 70
     1
102
RTVSPropertyOp49
 70
     1
102
RTVSPropertyOp50
 70
     1
102
RTVSPropertyOp51
 70
     0
102
RTVSPropertyOp52
 70
     0
102
RTVSPropertyOp53
 70
     1
102
RTVSPropertyOp54
 70
     1
102
RTVSPropertyOp55
 70
     1
102
RTVSPropertyOp56
 70
     1
102
RTVSPropertyOp57
 70
     1
102
RTVSPropertyOp58
 70
     1
102
RTVSPropertyOp59
 70
     1
102
RTVSPropertyOp60
 70
     1
102
RTVSPropertyOp61
 70
     1
102
RTVSPropertyOp62
 70
     1
  0
XRECORD
  5
185F4
102
{ACAD_REACTORS
330
185F3
102
}
330
185F3
100
AcDbXrecord
280
     1
102
RTVSPost2010Prop28
280
     0
102
RTVSPost2010PropOp28
 70
     1
102
RTVSPost2010Prop29
280
     1
102
RTVSPost2010PropOp29
 70
     1
102
RTVSPost2010Prop30
280
     1
102
RTVSPost2010PropOp30
 70
     1
102
RTVSPost2010Prop31
280
     0
102
RTVSPost2010PropOp31
 70
     1
102
RTVSPost2010Prop32
280
     0
102
RTVSPost2010PropOp32
 70
     1
102
RTVSPost2010Prop33
280
     0
102
RTVSPost2010PropOp33
 70
     1
102
RTVSPost2010Prop34
280
     0
102
RTVSPost2010PropOp34
 70
     1
102
RTVSPost2010Prop35
280
     0
102
RTVSPost2010PropOp35
 70
     1
102
RTVSPost2010Prop36
280
     0
102
RTVSPost2010PropOp36
 70
     1
102
RTVSPost2010Prop37
 90
       50
102
RTVSPost2010PropOp37
 70
     1
102
RTVSPost2010Prop38
140
0.0
102
RTVSPost2010PropOp38
 70
     1
102
RTVSPost2010Prop39
140
1.0
102
RTVSPost2010PropOp39
 70
     1
102
RTVSPost2010Prop40
 90
        0
102
RTVSPost2010PropOp40
 70
     1
102
RTVSPost2010Prop41ColorIndex
 90
       18
102
RTVSPost2010Prop41ColorRGB
 90
        0
102
RTVSPost2010PropOp41
 70
     1
102
RTVSPost2010Prop42
 90
       50
102
RTVSPost2010PropOp42
 70
     1
102
RTVSPost2010Prop43
 90
        3
102
RTVSPost2010PropOp43
 70
     1
102
RTVSPost2010Prop44ColorIndex
 90
        5
102
RTVSPost2010Prop44ColorRGB
 90
      255
102
RTVSPost2010PropOp44
 70
     1
102
RTVSPost2010Prop45
280
     0
102
RTVSPost2010PropOp45
 70
     1
102
RTVSPost2010Prop46
 90
       50
102
RTVSPost2010PropOp46
 70
     1
102
RTVSPost2010Prop47
 90
       50
102
RTVSPost2010PropOp47
 70
     1
102
RTVSPost2010Prop48
 90
       50
102
RTVSPost2010PropOp48
 70
     1
102
RTVSPost2010Prop49
280
     0
102
RTVSPost2010PropOp49
 70
     1
102
RTVSPost2010Prop50
 90
       50
102
RTVSPost2010PropOp50
 70
     1
102
RTVSPost2010Prop51ColorIndex
 90
      256
102
RTVSPost2010Prop51ColorRGB
 90
-16777216
102
RTVSPost2010PropOp51
 70
     0
102
RTVSPost2010Prop52
140
1.0
102
RTVSPost2010PropOp52
 70
     0
102
RTVSPost2010Prop53
 90
        2
102
RTVSPost2010PropOp53
 70
     1
102
RTVSPost2010Prop54
  1
strokes_ogs.tif
102
RTVSPost2010PropOp54
 70
     1
102
RTVSPost2010Prop55
280
     0
102
RTVSPost2010PropOp55
 70
     1
102
RTVSPost2010Prop56
140
1.0
102
RTVSPost2010PropOp56
 70
     1
102
RTVSPost2010Prop57
140
1.0
102
RTVSPost2010PropOp57
 70
     1
102
RTVSPropertyOp0
 70
     1
102
RTVSPropertyOp1
 70
     1
102
RTVSPropertyOp2
 70
     1
102
RTVSPropertyOp3
 70
     1
102
RTVSPropertyOp4
 70
     1
102
RTVSPropertyOp5
 70
     1
102
RTVSPropertyOp6
 70
     1
102
RTVSPropertyOp7
 70
     1
102
RTVSPropertyOp8
 70
     1
102
RTVSPropertyOp9
 70
     1
102
RTVSPropertyOp10
 70
     1
102
RTVSPropertyOp11
 70
     1
102
RTVSPropertyOp12
 70
     1
102
RTVSPropertyOp13
 70
     1
102
RTVSPropertyOp14
 70
     1
102
RTVSPropertyOp15
 70
     1
102
RTVSPropertyOp16
 70
     1
102
RTVSPropertyOp17
 70
     1
102
RTVSPropertyOp18
 70
     1
102
RTVSPropertyOp19
 70
     1
102
RTVSPropertyOp20
 70
     1
102
RTVSPropertyOp21
 70
     1
102
RTVSPropertyOp22
 70
     1
102
RTVSPropertyOp23
 70
     1
102
RTVSPropertyOp24
 70
     1
102
RTVSPropertyOp25
 70
     1
102
RTVSPropertyOp26
 70
     1
102
RTVSPropertyOp27
 70
     1
102
RTVSPropertyOp28
 70
     1
102
RTVSPropertyOp29
 70
     1
102
RTVSPropertyOp30
 70
     1
102
RTVSPropertyOp31
 70
     1
102
RTVSPropertyOp32
 70
     1
102
RTVSPropertyOp33
 70
     1
102
RTVSPropertyOp34
 70
     1
102
RTVSPropertyOp35
 70
     1
102
RTVSPropertyOp36
 70
     1
102
RTVSPropertyOp37
 70
     1
102
RTVSPropertyOp38
 70
     1
102
RTVSPropertyOp39
 70
     1
102
RTVSPropertyOp40
 70
     1
102
RTVSPropertyOp41
 70
     1
102
RTVSPropertyOp42
 70
     1
102
RTVSPropertyOp43
 70
     1
102
RTVSPropertyOp44
 70
     1
102
RTVSPropertyOp45
 70
     1
102
RTVSPropertyOp46
 70
     1
102
RTVSPropertyOp47
 70
     1
102
RTVSPropertyOp48
 70
     1
102
RTVSPropertyOp49
 70
     1
102
RTVSPropertyOp50
 70
     1
102
RTVSPropertyOp51
 70
     0
102
RTVSPropertyOp52
 70
     0
102
RTVSPropertyOp53
 70
     1
102
RTVSPropertyOp54
 70
     1
102
RTVSPropertyOp55
 70
     1
102
RTVSPropertyOp56
 70
     1
102
RTVSPropertyOp57
 70
     1
102
RTVSPropertyOp58
 70
     1
102
RTVSPropertyOp59
 70
     1
102
RTVSPropertyOp60
 70
     1
102
RTVSPropertyOp61
 70
     1
102
RTVSPropertyOp62
 70
     1
  0
ENDSEC
  0
EOF
